» » »

Watching Me Slip 1 Tabs

Artists:  A B C D E F G H I J K L M N O P Q R S T U V W X Y Z # 

Watching Me Slip 1 Tabs

(ver. 2)
Unloco Tabs
 Rating:
4/5 (4 votes)
    Watching Me Slip lessons Tabs too difficult? Try these video lessons and learn fast
                ----------------------------------------------------------------------------
Watching Me Slip - Unloco
----------------------------------------------------------------------------

Tuning: 1 ½ steps down (B-F#-B-E-G#-C#)

There’s only a couple different parts all based off of the same 4 chords. Pretty easy once you listen to it.


(#)-Strum twice as long



     !  S T R U M   A L L   C H O R D S  !

C#|-----------------------|
G#|-----------------------|
E |--9---7---5---4--------|
B |--9---7---5---4--------|
F#|--7---5---3---2--------|
B |-----------------------|
“So I sit...”



C#|------------------|
G#|------------------|
E |--9---7--(5)------|
B |--9---7--(5)------|
F#|--7---5--(3)------|
B |------------------|
“And there won’t be...”



C#|-----------------|
G#|-----------------|
E |--9-----4--------|
B |--9-----4--------|
F#|--7-----2--------|
B |-----------------|
“Look away you’re watching me as I slip away...”


C#|-----------------------|
G#|-----------------------|
E |--9---7---5---4--------|
B |--9---7---5---4--------|
F#|--7---5---3---2--------|
B |-----------------------|
“So I try...”


C#|------------------|
G#|------------------|
E |--9---7--(5)------|
B |--9---7--(5)------|
F#|--7---5--(3)------|
B |------------------|
“And there won’t be...”



C#|-----------------|
G#|-----------------|
E |--9-----4--------|
B |--9-----4--------|
F#|--7-----2--------|
B |-----------------|
“Look away you’re watching me as I slip away...”



C#|------------------|
G#|------------------|
E |--9---7--(5)------|
B |--9---7--(5)------|
F#|--7---5--(3)------|
B |------------------|
“It’s ‘cause I’m not enough to bring you down...”
            
Submit corrections

↑ Back to top | Unloco Tabs for Watching Me Slip. Lyrics for acoustic guitar and electric guitar. Tablatures and chords are parodies/interpretations of the original songs. You may use it for private study, scholarship, research or language learning purposes only