» » »

Useless Tabs (ver.1)

Artists:  A B C D E F G H I J K L M N O P Q R S T U V W X Y Z # 

Useless Tabs (ver.1)

Unloco
Rating:
0/5 (0 votes)

Tabs too difficult? Try these video lessons and learn fast.
                
Tuning: Drop D, Down 1 1/2 Steps (B,F#,B,E,G#,C#)

INTRO:
|----------------------------------------------------------|
|----------------------------------------------------------|
|------7/9-9------7/10-10------7/9-9-9-9/10-10-10-10/12-12-|
|-0--0-X-X-X-0--0-X-X---X-0--0-X-X-X-X-X-X---X--X--X--X--X-|
|-0--0-5/7-7-0--0-5/8---8-0--0-5/7-7-7-7/8---8--8--8/10-10-|
|-0--0-------0--0---------0--0-----------------------------|

VERSE:
|-------------------------------------------------------|
|-------------------------------------------------------|
|-------------------------------------------------------|
|-12--121210-10-13-13-13-1313-12--121210-10-13-13-13/15-|
|-12--121210-10-13-13-13-1313-12--121210-10-13-13-13/15-|
|-12--121210-10-13-13-13-1313-12--121210-10-13-13-13/15-|

|-------------------------------------------------|
|-------------------------------------------------|
|-------------------------------------------------|
|-12--121210-10-13-13-13-1313-12--121210-10-10-13-|
|-12--121210-10-13-13-13-1313-12--121210-10-10-13-|
|-12--121210-10-13-13-13-1313-12--121210-10-10-13-|

BRIDGE:
|-------------------------------------------|
|-------------------------------------------|
|-------------------------------------------|
|-12-12127-12-12127-12-12127-7/8-88-8/10-10-|
|-12-12127-12-12127-12-12127-7/8-88-8/10-10-|
|-12-12127-12-12127-12-12127-7/8-88-8/10-10-|

|-------------------------------------------------------------------|
|-------------------------------------------------------------------|
|-------------------------------------------------------------------|
|-12-12127-12-12127-12-12127-7/8-88-8\5-5-7-77-7-77-7-77-10-1010-10-|
|-12-12127-12-12127-12-12127-7/8-88-8\5-5-7-77-7-77-7-77-10-1010-10-|
|-12-12127-12-12127-12-12127-7/8-88-8\5-5-7-77-7-77-7-77-10-1010-10-|

CHORUS: (guitar 1)
|----------------------------------------|
|----------------------------------------|
|----------------------------------------|
|-12-1212-7-77-7-77-8-88-10-1010-10-1010-|
|-12-1212-7-77-7-77-8-88-10-1010-10-1010-|
|-12-1212-7-77-7-77-8-88-10-1010-10-1010-|

CHORUS: (guitar 2)
|-------------------------------------------------|
|-------------------------------------------------|
|-19-1919-14-1414-14-1414-15-1515-17-1717-17-1717-|
|--X--X-X--X--X-X--X--X-X--X--X-X--X--X-X--X--X-X-|
|-17-1717-12-1212-12-1212-13-1313-15-1515-15-1515-|
|-------------------------------------------------|

INTERLUDE:
|-----------------------------|
|-----------------------------|
|-----------------------------|
|-7h8-0-7h8-0-7h8-0-7h8-0-5-0-|
|-7h8-0-7h8-0-7h8-0-7h8-0-5-0-|
|-7h8-0-7h8-0-7h8-0-7h8-0-5-0-|

FILL:
|---|
|---|
|---|
|-7-|
|-7-|
|-7-|
            
Tabs too difficult? Try these video lessons and learn fast.


comments powered by Disqus
↑ Back to top | Tablatures and chords are parodies/interpretations of the original songs. You may use it for private study, scholarship, research or language learning purposes only