» » »

Unloco, Panic Bass tabs (ver.1)

Artists:  A B C D E F G H I J K L M N O P Q R S T U V W X Y Z # 

Panic Bass tabs (ver.1)

Unloco Tabs
 Rating:
4/5 (4 votes)
Panic lessons Tabs too difficult? Try these video lessons and learn fast
1
                Band- Unloco
Song- Panic

TUNE: (Db,A,D,G)

Intro:
|---------------------------------|
|---------------------------------|
|---------------------------------|
|-2p0--0-2p0--2p0--0-2p0--3p0-3p0-|

    OR
|------------------------------|
|------------------------------|
|------------------------------|
|-2~~b~p0--0-2~~bp0--0-3p0-3p0-|


Chorus:
|------------------------------------------------------------|
|------------------------------------------------------------|
|---------------------------6b~~----------------------4-7-6--|
|-2p0--0--(2h3p2)--0--0--0--------2p0--0-0--0-0--0-0---------|


Chorus

Bridge:
|----------------------------------------|
|:---------------------------------------|
|:---------------------------------------|
|-10--10--10--10-10/13--13--13-13--13-13-|

--------------------------------|
--------------------------------|
--------------------------------|
--8--8--8--8-8--/10--11-10-7-8--|

-----------------------------------------|
-----------------------------------------|
-----------------------------------------|
--10--10--10--10-10/13--13--13-13--13-13-|

-----------------------------|-------------|
----------------------------:|-------------|
----------------------3-2-0-:|-------------|
--8--8--8--8-8--1-3-1--------|-10----13----|

----------------------------|-------------------------|
----------------------------|-------------------------|
----------------------------|-------------------------|
----8----7----8--10-11-10-8-|-10----13--13--13-13--13-|

------------------------------|
------------------------------|
------------------------------|
--8--8-8---8--13--10-11-13-8--|

--------------------------------------------------|
--------------------------------------------------|
--------------------------------------------------|
--10----13--13--13-13--13-8----7----8--8-10-8-7-8-|

---------------------------------------------------|
---------------------------------------------------|
---------------------------------------------------|
--10----13--13--13-13-8---8-8--8-8--13--10-11-13-8-|


Chorus:
Bridge:

Ending:

|-------|
|-------|
|-------|
|-10----|
            
Submit corrections

comments powered by Disqus
↑ Back to top | Unloco Bass for Panic. Lyrics for acoustic guitar and electric guitar. 1 Tablatures and chords are parodies/interpretations of the original songs. You may use it for private study, scholarship, research or language learning purposes only