» » »

Neurotic Tabs (ver.2)

Artists:  A B C D E F G H I J K L M N O P Q R S T U V W X Y Z # 

Neurotic Tabs (ver.2)

Unloco
Rating:
0/5 (0 votes)

Hard to play? Try these video lessons and learn fast.
                Tuning: Drop D, 1 1/2 Steps Down (B,F#,B,E,G#,C#)




[INTRO]

c#|----------|
g#|----------|
e |----------|
B |-888-777--|
F#|-666-555--|
B |----------|

[CHORUS]

c#|------------------------------------------|
g#|------------------------------------------|
e |------------------------------------------|
B |--0--7---7-0-3333-5555-0-5--5-0-8888-7777-|
F#|--0--5--05-0-1111-3333-0-3-03-0-6666-5555-|
B |--0-----0--0-----------0---0--0-----------|


[INTERLUDE]


c#|-------------------------------------|
g#|-------------------------------------|
e |-------------------------------------|
B |--0-0--------------0-0---------------|
F#|--0-0-00-00-00-00--0-0--00-00-00-00--|
B |--0-0-00-00-00-00--0-0--00-00-00-00--|
P.M.     .. .. .. ..       .. .. .. ..

[BRIDGE]


c#|-----------------------------------------|
g#|-----------------------------------------|
e |-----------------------------------------|
B |--5/7-X-0---3/5-X-0---3/5-X-0--3333-5555-|
F#|--3/5-X-0---3/5-X-0---3/5-X-0--1111-3333-|
B |------X-0-------X-0-------X-0------------|


[INTERLUDE]

c#|-----|
g#|-----|
e |-----|
B |--0--|
F#|--0--|
B |--0--|


[BRIDGE2]

c#|-------------------------------------------|
g#|-------------------------------------------|
e |------2X2X2X2-----2X2X2X2------2X2X2X2-----|
B |--00----------00-----------00----------00--|
F#|--00----------00-----------00----------00--|
B |--00----------00-----------00----------00--|

[ENDING]

c#|------------|
g#|------------|
e |------------|
B |-0-7-X-7-7--|
F#|-0-5-X-5-5--|
B |-0---X------|


Comments etc.
@ 
            
Hard to play? Try these video lessons and learn fast. | Correct




comments powered by Disqus
↑ Back to top | Tablatures and chords are parodies/interpretations of the original songs. You may use it for private study, scholarship, research or language learning purposes only