» » »

Unloco, Know One Tabs (ver.1)

Artists:  A B C D E F G H I J K L M N O P Q R S T U V W X Y Z # 

Know One Tabs (ver.1)

Unloco Tabs
Rating:
5/5 (1 vote)
Know One lessons Tabs too difficult? Try these video lessons and learn fast
                
Tuning: Drop D, 1 1/2 Steps Down (B,F#,B,E,G#,C#)

CHORUS:
|--------------------------------------------------------------|
|--------------------------------------------------------------|
|-7-777-777-777-77--------------------------------10-1010-8-88-|
|-7-777-777-777-777-777-777-777-778-888-888-888-8810-1010-8-88-|
|-5-555-555-555-557-777-777-777-778-888-888-888-88-8--8-8-6-66-|
|-----------------7-777-777-777-778-888-888-888-88-------------|

VERSE:
|-------------------------------------|
|-------------------------------------|
|-------------------------------------|
|-12-12-12-12-12-XX-13-13-10-10-10-10-|
|-12-12-12-12-12-XX-13-13-10-10-10-10-|
|-12-12-12-12-12-XX-13-13-10-10-10-10-|

BRIDGE:
|------------------------------------------------------------|
|------------------------------------------------------------|
|--------7778888--------7778888--------7778888-8/10-10-5-5-5-|
|-0-1000-XXXXXXX-0-1000-XXXXXXX-0-1000-XXXXXXX-X--X--X-X-X-X-|
|-0-1000-5556666-0-1000-5556666-0-1000-5556666-6/-8--8-3-3-3-|
|-0-1000---------0-1000---------0-1000-----------------------|

INTERLUDE:
|-------------------|
|-------------------|
|-------------------|
|-0-0-01--0-0-010-0-|
|-0-0-01--0-0-010-0-|
|-0-0-01--0-0-010-0-|

INTERLUDE 2: (guitar 1)
|----------------|
|-15-13----------|
|-------15-14----|
|-------------15-|
|----------------|
|----------------|

INTERLUDE 2: (guitar 2)
|-----------------------|
|-----------------------|
|-----------------------|
|-12--7--8--------------|
|-12--7--8----3-----5---|
|-12--7--8--3---3-5---5-|

INTERLUDE 2B: (guitar 2)
|---------------------------------------|
|---------------------------------------|
|---------------------------------------|
|-12---8-7-7---8-7-10-10-10---5---------|
|-12-8-----7-8------8---------------5---|
|-12-------7--------8-------3---3-5---5-|
            

comments powered by Disqus
↑ Back to top | Unloco Tabs for Know One. Lyrics for acoustic guitar and electric guitar. Tablatures and chords are parodies/interpretations of the original songs. You may use it for private study, scholarship, research or language learning purposes only