» » »

Unloco, Hands And Knees Tabs (ver.1)

Artists:  A B C D E F G H I J K L M N O P Q R S T U V W X Y Z # 

Hands And Knees Tabs (ver.1)

Unloco Tabs
 Rating:
4/5 (4 votes)
Hands And Knees lessons Tabs too difficult? Try these video lessons and learn fast
                Band- Unloco
Song- Hands And Knees

[INTRO]

c#|---------------------------------------|
g#|---------------------------------------|
e |---------------------------------------|
B |---------------------------------------|
F#|------------------------------------3--|
B |--2h3p2-22-22h3p2-22-22h3p2--22h3p2----|

[VERSE]

c#|---------------------------------------|
g#|---------------------------------------|
e |-------------------------------------5-|
B |-2h3p2-22-22h3p2-22-22h3p2--22h3p2---5-|
F#|-2h3p2-22-22h3p2-22-22h3p2--22h3p2---3-|
B |-2h3p2-22-22h3p2-22-22h3p2--22h3p2-----|


[CHORUS]

picking maybe not exact

c#|------------------------------------------------|
g#|------------------------------------------------|
e |------------------------------------------------|
B |--55555555--777777-8888-8888-10101010-12121212--|
F#|------------------------------------------------|
B |------------------------------------------------|

c#|-----------------------------------------|
g#|-----------------------------------------|
e |-----------------------------------------|
B |--55555555--777777-8888-3333-5555-3333---|
F#|-----------------------------------------|
B |-----------------------------------------|


[INTERLUDE]

c#|-----|
g#|-----|
e |-----|
B |--5--|
F#|--5--|
B |--5--|


[BRIDGE]

c#|---------------------|
g#|---------------------|
e |---------------------|
B |----7----10---7------|
F#|---------------------|
B |--5----8----5---3~~--|

[BRIDGE2]

c#|-----------------------------------|
g#|-----------------------------------|
e |-----------------------------------|
B |----7-8----10-12----7-8------5-3---|
F#|-----------------------------------|
B |--5------8--------5-------3--------|

[ENDING]

c#|------------------------------------------------------------|
g#|------------------------------------------------------------|
e |------------------------------------------------------------|
B |--5-7-5--875---0-7-5--875---5-7-5--875---0-7-5--875-----5---|
F#|--5-7-5--875---0-7-5--875---5-7-5--875---0-7-5--875-----5---|
B |--5-7-5--875---0-7-5--875---5-7-5--875---0-7-5--875-----5---|
            
Submit corrections

comments powered by Disqus
↑ Back to top | Unloco Tabs for Hands And Knees. Lyrics for acoustic guitar and electric guitar. Tablatures and chords are parodies/interpretations of the original songs. You may use it for private study, scholarship, research or language learning purposes only