» » »

Failure Bass tabs (ver.1)

Artists:  A B C D E F G H I J K L M N O P Q R S T U V W X Y Z # 

Failure Bass tabs (ver.1)

Unloco
Rating:
4/5 (1 vote)

Hard to play? Try these video lessons and learn fast.
                Band- Unloco
Song- Failure

Intro:
G|--------------------------------------------------------|
D|--4--4-44-44--4-4--4-4--4-4/9--9--99-99--9-9--9-9--9-9--|
A|--------------------------------------------------------| x2
E|--------------------------------------------------------|
B|--------------------------------------------------------|

G|-------------------|
D|--7--7-7--9--9-9---|
A|----------------7--| 
E|-------------------|
B|-------------------|

Chorus:
G|-----------------------------------------------------------|
D|-----4-------4-----4-------4----------9--------------------|
A|----------------------------------9------------------------|
E|--2-----2-2-----2-----2-2-----2/7---7---7--5-5-5-7-7-7-----|
B|-------------------------------------------------------55--|

G|--------------------------------------------------------------|
D|-----4-------4-----4-------4----------9-----------------------|
A|----------------------------------9---------------------------|
E|--2-----2-2-----2-----2-2-----2/7---7---7--5-5-5-7-7-7--2~~~--|
B|-------------------------------------------------------5------|

Verse:
G|----------------------------------------------------------------------|
D|-----4-------4-----4--------------9-----9-----------------------------|
A|---------------------------------------------10p9h10p9-10p9h10p9--12--| x2
E|--2-----2-2-----2-----2-2--2-2/7-----7-----7--------------------------|
B|----------------------------------------------------------------------|

G|-----------------------------------|
D|------7-----7---------9-------9----|
A|----7-----7-----7---9---9---9------|
E|--5-----5-----5---7-------7--------|
B|--------------------------------5--|

Chorus:
G|-----------------------------------------------------------|
D|-----4-------4-----4-------4----------9--------------------|
A|----------------------------------9------------------------|
E|--2-----2-2-----2-----2-2-----2/7---7---7--5-5-5-7-7-7-----|
B|-------------------------------------------------------55--|

G|-----------------------------------------------------------|
D|-----4-------4-----4-------4----------9--------------------|
A|----------------------------------9------------------------|
E|--2-----2-2-----2-----2-2-----2/7---7---7--5-5-5-7-7-7--2--|
B|-------------------------------------------------------5---|

Bridge:
G|-------------------------------|
D|-------------------------------|
A|-------------------------------| x3
E|--4/5-55-4/5-55----------------|
B|----------------5/7-77-5/7-77--|

G|-------------------------------9-9-9-9-9-9-9-9-9-------|
D|---------99----7-7-7-7-7-7-7-7-------------------------|
A|----99-----9-------------------7-7-7-7-7-7-7-7-7-------|
E|-77----77---7--5-5-5-5-5-5-5-5-------------------2~~~--|
B|-------------0-----------------------------------------|

Chorus:
G|---------------|
D|---------------|
A|--rest---------|
E|---------------|
B|--------35~~~--|

G|-----------------------------------------------------------|
D|-----4-------4-----4-------4----------9--------------------|
A|----------------------------------9------------------------| x2
E|--2-----2-2-----2-----2-2-----2/7---7---7--5-5-5-7-7-7-----|
B|-------------------------------------------------------55--|

Ending:
G|----------------------------------------------------------------------|
D|-----4-------4-----4-------4----------9--------7-7-------------9------|
A|----------------------------------9------------------7-----9----------|
E|--2-----2-2-----2-----2-2-----2/7---7---7--5-5-----5---5-7---7---7----|
B|-------------------------------------------------------------------0--|

G|----------------------|
D|----------------------|
A|----------------------| x4
E|----------------------|
B|--5h7-77-5h7-77-3333--|

G|------------|
D|------------|
A|------------|
E|------------|
B|--5h7-77/0--|
            
Hard to play? Try these video lessons and learn fast. | Correct




comments powered by Disqus
↑ Back to top | Tablatures and chords are parodies/interpretations of the original songs. You may use it for private study, scholarship, research or language learning purposes only