» » »

Unloco, Clean Tabs (ver.2)

Artists:  A B C D E F G H I J K L M N O P Q R S T U V W X Y Z # 

Clean Tabs (ver.2)

Unloco Tabs
Rating:
0/5 (0 votes)
Clean lessons Tabs too difficult? Try these video lessons and learn fast
                Band: Unloco


(0:04)                              x4
C#||--------------------------------||
G#||--------------------------------||
E ||--------------------------------||
B ||--------------------------------||
F#||-----------------------------1--||
B ||--0-0---0-0---1-1---1-1---1-----||

(0:12)                              x4
C#||--------------------------------||
G#||--------------------------------||
E ||--------------------------------||
B ||-----------------------------3--||
F#||--0-0---0-0---1-1---1-1---1--1--||
B ||--0-0---0-0---1-1---1-1---1-----||

(0:20)                  x3
C#||--------------------||
G#||--------------------||
E ||--------------------||
B ||--------------------||
F#||--------------------||
B ||--2--2--------------||
P.M.  _ _

(0:26)
C#||-----------------------------||
G#||-----------------------------||
E ||-----------------------------||
B ||-----------------------------||
F#||--------------------------1--||
B ||--2--2-----2-2---3-3---3-----||
P.M.  _  _     _ _   _ _   _  _

(0:28)                           x4
C#||-----------------------------||
G#||-----------------------------||
E ||-----------------------------||
B ||-----------------------3--3--||
F#||-----------------------3--3--||
B ||--2--2-----2-2---3-3---3--3--||
P.M.  _  _     _ _   _ _   _  _

(0:36)                       x4
C#||-------------------------||
G#||-------------------------||
E ||-------------------------||
B ||--2----2----3-3--3--3-3--||
F#||--2----2----3-3--3--3-3--||
B ||--2----2----3-3--3--3-3--||

(0:52)                  x3
C#||--------------------||
G#||--------------------||
E ||--------------------||
B ||--------------------||
F#||--------------------||
B ||--2--2--------------||
P.M.  _ _

(0:58)
C#||-----------------------------||
G#||-----------------------------||
E ||-----------------------------||
B ||-----------------------------||
F#||--------------------------1--||
B ||--2--2-----2-2---3-3---3-----||
P.M.  _  _     _ _   _ _   _  _

(1:00)                           x4
C#||-----------------------------||
G#||-----------------------------||
E ||-----------------------------||
B ||-----------------------3--3--||
F#||-----------------------3--3--||
B ||--2--2-----2-2---3-3---3--3--||
P.M.  _  _     _ _   _ _   _  _

(1:08)                           x4
C#||-----------------------------||
G#||-----------------------------||
E ||-----------------------------||
B ||-----------------------------||
F#||--------------------------1--||
B ||--2--2-----2-2---3-3---3-----||
P.M.  _  _     _ _   _ _   _  _

(1:16)                           x4
C#||-----------------------------||
G#||-----------------------------||
E ||-----------------------------||
B ||-----------------------3--3--||
F#||-----------------------3--3--||
B ||--2--2-----2-2---3-3---3--3--||
P.M.  _  _     _ _   _ _   _  _

(1:24)                       x4
C#||-------------------------||
G#||-------------------------||
E ||-------------------------||
B ||--2----2----3-3--3--3-3--||
F#||--2----2----3-3--3--3-3--||
B ||--2----2----3-3--3--3-3--||

(1:40)                               x4
C#||--------------------------------||
G#||--------------------------------||
E ||--------------------------------||
B ||--------------------------------||
F#||-----------------------------1--||
B ||--0-0---0-0---1-1---1-1---1-----||

(1:48)                              x4
C#||--------------------------------||
G#||--------------------------------||
E ||-----------------------------3--||
B ||--0-0---0-0---1-1---1-1---1--3--||
F#||--0-0---0-0---1-1---1-1---1--1--||
B ||--0-0---0-0---1-1---1-1---1-----||

(1:56)                                                          x4
C#||---------------------------|--------------------------------||
G#||---------------------------|--------------------------------||
E ||--7----7-7-7-7---7-7-7-7---|--8----8-8-8-12---12-12-12-11---||
B ||--7----7-7-7-7---7-7-7-7---|--8----8-8-8-12---12-12-12-11---||
F#||--5----5-5-5-5---5-5-5-5---|--6----6-6-6-10---10-10-10--9---||
B ||---------------------------|--------------------------------||

(2:12)                                                     x2
C#||-------------------------|-----------------------------||
G#||-------------------------|-----------------------------||
E ||--7----7-7-7----7-7-7----|--8----8-8-12----12-12-11----||
B ||-------------------------|-----------------------------||
F#||--5----5-5-5----5-5-5----|--6----6-6-10----10-10--9----||
B ||-------------------------|-----------------------------||

(2:20)                              x8
C#||--------------------------------||
G#||--------------------------------||
E ||-----------------------------3--||
B ||--0-0---0-0---1-1---1-1---1--3--||
F#||--0-0---0-0---1-1---1-1---1--1--||
B ||--0-0---0-0---1-1---1-1---1-----||

(2:36)                       x8
C#||-------------------------||
G#||-------------------------||
E ||--7----7----8-8--8--8-8--||
B ||--7----7----8-8--8--8-8--||
F#||--5----5----6-6--6--6-6--||
B ||-------------------------||

(2:52)
C#||--------------------------------||
G#||--------------------------------||
E ||-----------------------------3--||
B ||--0-0---0-0---1-1---1-1---1--3--||
F#||--0-0---0-0---1-1---1-1---1--1--||
B ||--0-0---0-0---1-1---1-1---1-----||
            

comments powered by Disqus
↑ Back to top | Unloco Tabs for Clean. Lyrics for acoustic guitar and electric guitar. Tablatures and chords are parodies/interpretations of the original songs. You may use it for private study, scholarship, research or language learning purposes only