» » »

Unloco, Becoming I Tabs (ver.2)

Artists:  A B C D E F G H I J K L M N O P Q R S T U V W X Y Z # 

Becoming I Tabs (ver.2)

Unloco Tabs
 Rating:
4/5 (4 votes)
Becoming I lessons Tabs too difficult? Try these video lessons and learn fast
1
                Tuning: Drop D, 1 1/2 Steps Down (B,F#,B,E,G#,C#)


[INTRO+VERSE]

For the Intro you have to tune the G# down to a F#

So you play in B,F#,B,E,F#,C# instead of B,F#,B,E,G#,C#



and then you play:


c#|-3/5----5-----5-----5-----5---3--3/6----6----6----6----6---3-3/5---5----5----5----5---3-3\1-1-1/3-3----3----
f#|-0--00--0-00--0-00--0-00--0-0-0--0---00-0-00-0-00-0-00-0-0-0-0--00-0-00-0-00-0-00-0-0-0-0---0-0---0-00-0----
e |------------------------------------------------------------------------------------------------------------
B |------------------------------------------------------------------------------------------------------------
F#|------------------------------------------------------------------------------------------------------------
B |------------------------------------------------------------------------------------------------------------


sometimes this:

c#|-3/5----5-----5-----5-----5---3--3/6----6----9----9----9---3-......--|
f#|-0--00--0-00--0-00--0-00--0-0-0--0---00-0-00-0-00-0-00-0-0-0-......--|
e |---------------------------------------------------------------------|
B |---------------------------------------------------------------------|
F#|---------------------------------------------------------------------|
B |---------------------------------------------------------------------|

the picking is a bit different in some parts


[CHORUS]

			
c#|-------------------------------------------|---------------------------------|
f#|-------------------------------------------|---------------------------------|
e |-------------------------------------------|---------------------------------|
B |-7-7777777777777/888-88/10-10-10-10-10-10--|-7-77777777--3-33333--55-55555---|
F#|-------------------------------------------|---------------------------------|
B |-------------------------------------------|---------------------------------|


a second guitar playes the same with Powerchords, but very quiet.


[BREAKDOWN]

MY FAVOURITE PART OF THE SONG!!

c#|-----------------------------------------------------|
f#|-----------------------------------------------------|
e |-----------------------------------------------------|
B |-00-00--1-0---8-0---1-0---8-0--00-00---1-0---0-8888--|
F#|-00-00--1-0---8-0---1-0---8-0--00-00---1-0---0-8888--|
B |-00-00--1-0---8-0---1-0---8-0--00-00---1-0---0-8888--|


you can also play it in this way:

c#|-----------------------------------------------------|
f#|-----------------------------------------------------|
e |-----------------------------------------------------|
B |-00-00--1-0---3-0---1-0---3-0--00-00---1-0---0-3333--|
F#|-00-00--1-0---1-0---1-0---1-0--00-00---1-0---0-1111--|
B |-00-00--1-0-----0---1-0-----0--00-00---1-0---0-------|

both sounds good.

[INTERLUDE]

P.M  .  ....
c#|------------|
f#|------------|
e |------------|
B |------------|
F#|--0--3333---|
B |--0--3333---|

[BRIDGE]

c#|----------------------------|
f#|----------------------------|
e |----------------------------|
B |--1p0-000--1p0-00--1-3-1-0--|
F#|--1p0-000--1p0-00--1-3-1-0--|
B |--1p0-000--1p0-00--1-3-1-0--|
            
Submit corrections

comments powered by Disqus
↑ Back to top | Unloco Tabs for Becoming I. Lyrics for acoustic guitar and electric guitar. 1 Tablatures and chords are parodies/interpretations of the original songs. You may use it for private study, scholarship, research or language learning purposes only