» » »

Unleashed, Where Life Ends Tabs (ver.1)

Artists:  A B C D E F G H I J K L M N O P Q R S T U V W X Y Z # 

Where Life Ends Tabs (ver.1)

Unleashed Tabs
Rating:
0/5 (0 votes)
Where Life Ends lessons Tabs too difficult? Try these video lessons and learn fast
                Tuning: 2.5 steps down (B)

Riff:1               Riff:2    Riff:3a        Riff:3b
|-------------------|---------|--------------|----------------------|
|-------------------|---------|--------------|----------------------|
|-------------------|---------|--------------|----444---333---------|
|-----0-------0---3-|---------|--------------|-555---555------------|
|-------1-------1---|---2---1-|----222---111-|----------------------|
|-0-2-----0-2-------|-0---3---|-000---333----|----------------------|

Riff:4                    Riff:5
|------------------------|------------------------------------------|
|------------------------|------------------------------------------|
|------------------------|------------------------------------------|
|------------------------|-------999---888---9988-------------------|
|------------------------|-101010---999---999----888----------------|
|-333666222-333666555222-|------------------------------------------|

Riff:6a             Riff:6b           Riff:6c
|-----------------|-----------------|-------------------------------|
|-----------------|-----------------|-------------------------------|
|-----------------|-----------------|-------------------------------|
|---------------6-|-------6-5-------|--------------6-66-5-55--------|
|---5-4-----5-4---|---5-4-----7-8---|-----5-55-4-44---------7-77-8-8|
|-3-----1-3-------|-3-------------6-|-3-33--------------------------|

Cont.   Riff:6d                    Riff:7a
|------|--------------------------|---------------------------------|
|------|--------------------------|---------------------------------|
|------|--------------------------|---------------------------------|
|------|----------666555----------|---------------------------------|
|8-----|----555444------777888----|----5566---556633---3344--334411-|
|-6-66-|-333------------------666-|-33------33-------11----11-------|

Riff:7b
|-------------------------------------------------------------------|
|-------------------------------------------------------------------|
|---7788---778855---5566--556633------------------------------------|
|-55-----55-------33----33------------------------------------------|
|-------------------------------------------------------------------|
|-------------------------------------------------------------------|

Solo
    p  p     p  p     p  p    p  p    p  p     p  p     p  p     p
|-13-12-10-13-12-10-12-11-9-12-11-9-13-12-10-13-12-10-14-13-11-14-13|
|-------------------------------------------------------------------|
|-------------------------------------------------------------------|
|-------------------------------------------------------------------|
|-------------------------------------------------------------------|
|-------------------------------------------------------------------|

Cont.
 p     p  p     p  p     p  p     p  p     p  p     p  p     p  p
|-11-18-17-15-18-17-15-17-16-14-17-16-14-18-17-15-18-17-15-19-18-16-|
|-------------------------------------------------------------------|
|-------------------------------------------------------------------|
|-------------------------------------------------------------------|
|-------------------------------------------------------------------|
|-------------------------------------------------------------------|

Cont.
   p  p     p  p     p  p     p  p    p  p    p  p     p  p     p  p
|19-18-16-13-12-10-13-12-10-12-11-9-12-11-9-13-12-10-13-12-10-14-13-|
|-------------------------------------------------------------------|
|-------------------------------------------------------------------|
|-------------------------------------------------------------------|
|-------------------------------------------------------------------|
|-------------------------------------------------------------------|

Cont.
       p  p     p  p     p  p     p  p     p  p     p  p     p  p
|-11-18-17-15-18-17-15-17-16-14-17-16-14-18-17-15-17-16-14-16-15-13-|
|-------------------------------------------------------------------|
|-------------------------------------------------------------------|
|-------------------------------------------------------------------|
|-------------------------------------------------------------------|
|-------------------------------------------------------------------|

Cont.
|-------------------------------------------------------------------|
|-------------------------------------------------------------------|
|--15^v-\\\---------------------------------------------------------|
|-------------------------------------------------------------------|
|-------------------------------------------------------------------|
|-------------------------------------------------------------------|

Riff:8
|-------------------------------------------------------------------|
|-------------------------------------------------------------------|
|-------------------------------------------------------------------|
|-----------3322--------------3322----------------------------------|
|-------5544----4455------5544--------------------------------(2)---|
|-000333------------000333--------333-------------------------(0)---|
            
Submit corrections

comments powered by Disqus
↑ Back to top | Unleashed Tabs for Where Life Ends. Lyrics for acoustic guitar and electric guitar. Tablatures and chords are parodies/interpretations of the original songs. You may use it for private study, scholarship, research or language learning purposes only