» » »

Unleashed, Violent Ecstasy Tabs (ver.1)

Artists:  A B C D E F G H I J K L M N O P Q R S T U V W X Y Z # 

Violent Ecstasy Tabs (ver.1)

Unleashed Tabs
 Rating:
4/5 (4 votes)
Violent Ecstasy lessons Tabs too difficult? Try these video lessons and learn fast
1
                Tuning: 2.5 steps down (B)


Riff:1                      1-3   4th   Riff:2
|--------------------------|-----|-----|----------------------------|
|--------------------------|-----|-----|----------------------------|
|--------------------------|-----|-----|----------------------------|
|--------------------------|-----|-----|----------------------------|
|-8\\----------3---6-------|-5-3-|-5-8-|----2211----------2211------|
|-6\\--0-0-0-0-1-0-4-0-0-0-|-3-1-|-3-6-|-000----333111-000----111---|

Fill:1        Riff:3            Riff:4
|------------|-----------------|------------------------------------|
|------------|-----------------|------------------------------------|
|------------|-----------------|------------------------------------|
|---99--1010-|-----------------|------------------------------------|
|-77--88-----|-66------66------|----2211---111----2211--------------|
|------------|---55444---44333-|-000----333----000----111-----------|

Riff:5                       Riff:6
|---------------------------|---------------------------------------|
|---------------------------|---------------------------------------|
|---------------------------|---------------------------------------|
|-------h-p----------h-p--2-|---------------------------------------|
|-3-2--2-3-2-1-3-2--2-3-2---|-3-2--(3)--2--(3)--2--(3)--2--6-3------|
|-1-0----------1-0----------|-1-0--(1)--0--(1)--0--(1)--0--4-1-//\\-|

Riff:7
|---------------------------------|---------------------------------|
|---------------------------------|---------------------------------|
|---------------------------------|---------------------------------|
|---------------------------------|--2------------------------------|
|-2-222-3-33-5-6--2-222-3-33-5-6--|--2------------------------------|
|-0-000-1-11-3-4--0-000-1-11-4-1--|--0------------------------------|
            
Submit corrections

comments powered by Disqus
↑ Back to top | Unleashed Tabs for Violent Ecstasy. Lyrics for acoustic guitar and electric guitar. 1 Tablatures and chords are parodies/interpretations of the original songs. You may use it for private study, scholarship, research or language learning purposes only