» » »

Unleashed, Victims Of War Tabs (ver.1)

Artists:  A B C D E F G H I J K L M N O P Q R S T U V W X Y Z # 

Victims Of War Tabs (ver.1)

Unleashed Tabs
Rating:
2/5 (1 vote)
Victims Of War lessons Tabs too difficult? Try these video lessons and learn fast
                                  "VICTIMS OF WAR" BY UNLEASHED
                  FROM THE "VICTORY" ALBUM



Tuning: I use to play it with a "dropped C" tuning
        (from high to low: d, A, F, C, G, D),
        but if wish to "normalize" the tunig you can play it
        adding 2 to all the fret numbers on the first 5 strings

.  - palm mute                          ph - pinched harmonic
/  - slide up to                        ah - artificial harmonic
\  - slide down to                      hr - harmonic
~  - vibrato                            p  - pull off
bf - bend full                          h  - hammer on
() - ghost note


Riff A

d----------------------------|
A----------------------------|
F----------------------------|
C----------------------------|
G----------------------------|
C-0-0-0-0-0-----0-0-0-0-0----|
| . . . . .     . . . . .


Fill A

d-------|
A-------|   I use to play this with a little bend
F-------|   (less than half step, I don't know exactly)
C--6----|
G--4----|
C-------|


Fill B           Fill C

d-------|     d-------|
A-------|     A-------|
F-------|     F-------|
C-------|     C-------|
G--7H8--|     G--12P8-|
C-------|     C-------|
                A.H


Riff B

d------------------------------------|
A------------------------------------|
F------------------------------------|
C------------------------------------|
G------------------------------------|
C-0-0-0-0-0------0-0-0-0-0---0-0-0---|
  . . . . .      . . . . .   . . .

This is actually Riff A with a little modification in the end
(I think you have seen)



Riff C

d-----------------------------------------|
A-----------------------------------------|
F-----------------------------------------|
C------6-----6----6------6----------------|
G------4-----4----4------4----------------|
C-0000---0-0---00---0000---3H4P3-1H3P1-0--|
  ....   . .   ..   ....

Riff D
(I think it's not right...)
d-----------------------------------------|
A-----------------------------------------|
F-----------------------------------------|
C-----I don't know------------------------|
G--how many pickings...--------4-3P2P1P0--|
C-000000000000000-------------------------|
  ...............

(Continuation of Riff D)

d-------------------------------|
A-------------------------------|
F-------------------------------|
C----6----6----6----------------|
G----4----4----4----------------|
C-00---00---00---00--4-3p2p1p0--|
  ..   ..   ..   ..


Riff E

d-----------------------------------------|
A-----------------------------------------|
F-----------------------------------------|
C------6-----8----7------6----------------|
G------4-----------------4----------------|
C-0000---0-0---00---0000---3H4P3-1H3P1-0--|
  ....   . .   ..   ....

Again I must say that this is Riff C with little modifications


Riff F

d-------------------------------------------------------------|
A-------------------------------------------------------------|
F-------------------------------------------------------------|
C-------------------------------------------------------------|
G-------------------------------------------------------------|
C-0--0-11-11-11-0--0-11-11-11-0--0-11-11-11-12-12-12-13-13-13-|
  .  .  .  .  . .  .  .  .  . .  .  .  .  .  .  .  .  .  .  .

(Continuation of Riff F)

d-------------------------------------------------------------|
A-------------------------------------------------------------|
F-------------------------------------------------------------|
C-------------------------------------------------------------|
G-------------------------------------------------------------|
C-0--0-11-11-11-0--0-11-11-11-0--0-11-11-11-5-5-5-3-3-3-------|
  .  .  .  .  . .  .  .  .  . .  .  .  .  . . . . . . .

There is some harmony part in this riff, but I can't really catch...
(actually I am very lazy to do it)

Riff G

d-------------------------------------------------------------|
A-------------------------------------------------------------|
F-------------------------------------------------------------|
C-----6-----6-----6-------------------------------------------|
G-----4-----------4-------------------------------------------|
C-000---000---000---5H6P5-3H5P3-------------------------------|
  ...   ...   ...

(Continuation of Riff G - of course)

d-------------------------------------------------------------|
A-------------------------------------------------------------|
F-------------------------------------------------------------|
C-----6-----6-----6-------------------------------------------|
G-----4-----------4-------------------------------------------|
C-000---000---000---3H5P3-1h3h1-------------------------------|
  ...   ...   ...

I'm sure that there are wrong parts on it, but I think it will
help you a bit.

                  S O N G   O R D E R

I know that all the guitarrists prefer to listen to the song
to get the order, and that nobody reads this part of the
tablatures, but I'll put it here anyway.
(At least this part I know that is not wrong....heheheh)

Obs.: Play the part just one time where it's not notated

Riff A   X 6
Fill A
Riff A   X 2
Fill A
Riff A   X 2
Fill A
Riff A
Fill B
Riff A
Fill C
Riff A   X 2
Fill A
Riff B   X 2
Riff A   X 2
Fill A
Riff C   X 4
Riff D   X 2
Riff C   X 2
Riff E   X 2
Riff D   X 2
Riff F   X 2
Riff F   X 4  (Now with that harmony part I didn't catch)
Riff G   X 2
Riff C   X 3
Riff D   X 2
Riff C   X 2
Riff E   X 2
Riff F   X 5  (with a solo. The solo is so simple that I prefer not to play
it)
            

comments powered by Disqus
↑ Back to top | Unleashed Tabs for Victims Of War. Lyrics for acoustic guitar and electric guitar. Tablatures and chords are parodies/interpretations of the original songs. You may use it for private study, scholarship, research or language learning purposes only