» » »

To Asgaard We Fly Tabs (ver.1)

Artists:  A B C D E F G H I J K L M N O P Q R S T U V W X Y Z # 

To Asgaard We Fly Tabs (ver.1)

Unleashed
Rating:
4/5 (1 vote)

Hard to play? Try these video lessons and learn fast.
                                         
                          UNLEASHED-TO ASGAARD WE FLY
                          From the Album ACROSS THE OPEN SEA
                          Copyright 1993 Century Media Records
      
                          Version 1.0 - November 1998



(Malignant Tablature Dominion)

Check Out DEATH WARP, With More Transcriptions On It:


/     slide up
\     slide down
p     pull on
h     hammer on
~     vibrato
.     palm mute

Tunning 2.5 steps down  (B,E,A,D,G,B)
 

 play 1 time
  .  .... .  .  .... .  1. 3.____________    2.______________  4._____________
|----------------------|-------------------|------------------|---------------|
|----------------------|-------------------|------------------|---------------|
|----------------------|-------------------|------------------|---------------|
|----------------------|---555544442221111-|---55554444111111-|---55554444--1-|
|----------------------|-3-----------------|-3----------------|-3-------------|
|-0--0000-0--0--0000-0-|-------------------|------------------|---------------|


 play 6 times
  .  .... .  .  .... .
|----------------------|---------------|
|----------------------|---------------|
|----------------------|---------------|
|----------------------|------1111-----|
|----------------------|-23333----2222-|
|-0--0000-0--0--0000-0-|---------------|


 play 1 time
  .  .... .  ..
|---------------|-----------------|
|---------------|-----------------|
|---------------|-----------------|
|---------------|-555888855554444-|
|-3--3333-3--33-|-----------------|
|---------------|-----------------|

 play 4 times
  .  .... .  .  .... .
|----------------------|---------------|
|----------------------|---------------|
|----------------------|---------------|
|----------------------|------1111-----|
|----------------------|-23333----2222-|
|-0--0000-0--0--0000-0-|---------------|


 play 1 time
  .  .... .  ..
|---------------|-----------------|
|---------------|-----------------|
|---------------|-----------------|
|---------------|-555888855554444-|
|-3--3333-3--33-|-----------------|
|---------------|-----------------|


 play 2 times           1.______________________  2._____________________
  .  .... .  .  .... .   .  .... .    .  ....  .   .  ....  .   .  ....  .
|----------------------|-------------------------|-------------------------|
|----------------------|-------------------------|-------------------------|
|----------------------|-------------------------|-------------------------|
|----------------------|-------------------------|-------------------------|
|-7--7777-7--6--6666-6-|-3--3333--3---3--3333--3-|-------------------------|
|----------------------|-------------------------|-3--3333--3---3--3333--3-|

 play 4 times
  .  .... .  .  .... .
|----------------------|---------------|
|----------------------|---------------|
|----------------------|---------------|
|----------------------|------1111-----|
|----------------------|-23333----2222-|
|-0--0000-0--0--0000-0-|---------------|


 play 1 time
  .  .... .  ..
|---------------|-----------------|
|---------------|-----------------|
|---------------|-----------------|
|---------------|-555888855554444-|
|-3--3333-3--33-|-----------------|
|---------------|-----------------|

 play 4 times
  .  .... .  .  .... .
|----------------------|---------------|
|----------------------|---------------|
|----------------------|---------------|
|----------------------|------1111-----|
|----------------------|-23333----2222-|
|-0--0000-0--0--0000-0-|---------------|


 play 1 time
  .  .... .  ..
|---------------|-----------------|
|---------------|-----------------|
|---------------|-----------------|
|---------------|-555888855554444-|
|-3--3333-3--33-|-----------------|
|---------------|-----------------|


 play 2 times           1.______________________  2._____________________
  .  .... .  .  .... .   .  .... .    .  ....  .   .  ....  .   .  ....  .
|----------------------|-------------------------|-------------------------|
|----------------------|-------------------------|-------------------------|
|----------------------|-------------------------|-------------------------|
|----------------------|-------------------------|-------------------------|
|-7--7777-7--6--6666-6-|-3--3333--3---3--3333--3-|-------------------------|
|----------------------|-------------------------|-3--3333--3---3--3333--3-|


play 1 time
  .  .... .  .  .... .  1. 3.____________    2.______________  4._____________
|----------------------|-------------------|------------------|---------------|
|----------------------|-------------------|------------------|---------------|
|----------------------|-------------------|------------------|---------------|
|----------------------|---555544442221111-|---55554444111111-|---55554444--1-|
|----------------------|-3-----------------|-3----------------|-3-------------|
|-0--0000-0--0--0000-0-|-------------------|------------------|---------------|


 play 2 times
|---------------------------------------------------------------------------------|
|---------------------------------------------------------------------------------|
|---------------------------------------------------------------------------------|
|------1-------1-2-1-------1-------1-2-1--------5-------4-5-4-------5-------4-5-4-|
|-2--3----2--3--------2--3----2--3--------2--3----2--3--------2--3----2--3--------|
|-0-------0-----------0-------0-----------0-------0-----------0-------0-----------|


 play 2 times
|------------------------|
|------------------------|
|------------------------|
|------1-2-1-------4-5-4-|
|-2--3--------2--3-------|
|-0-----------0----------|


 play 1 times
|---------------------------------------------------------------------------------|
|---------------------------------------------------------------------------------|
|---------------------------------------------------------------------------------|
|------1-------1-2-1-------1-------1-2-1--------5-------4-5-4-------5-------4-5-4-|
|-2--3----2--3--------2--3----2--3--------2--3----2--3--------2--3----2--3--------|
|-0-------0-----------0-------0-----------0-------0-----------0-------0-----------|


 play 6 times
  .  .... .  .  .... .
|----------------------|---------------|
|----------------------|---------------|
|----------------------|---------------|
|----------------------|------1111-----|
|----------------------|-23333----2222-|
|-0--0000-0--0--0000-0-|---------------|


 play 1 time
  .  .... .  ..
|---------------|-----------------|
|---------------|-----------------|
|---------------|-----------------|
|---------------|-555888855554444-|
|-3--3333-3--33-|-----------------|
|---------------|-----------------|

 play 4 times
  .  .... .  .  .... .
|----------------------|---------------|
|----------------------|---------------|
|----------------------|---------------|
|----------------------|------1111-----|
|----------------------|-23333----2222-|
|-0--0000-0--0--0000-0-|---------------|


 play 1 time
  .  .... .  ..
|---------------|-----------------|
|---------------|-----------------|
|---------------|-----------------|
|---------------|-555888855554444-|
|-3--3333-3--33-|-----------------|
|---------------|-----------------|


 play 2 times           1. 3.___________________  2._____________________
  .  .... .  .  .... .   .  .... .    .  ....  .   .  ....  .   .  ....  .
|----------------------|-------------------------|-------------------------|
|----------------------|-------------------------|-------------------------|
|----------------------|-------------------------|-------------------------|
|----------------------|-------------------------|-------------------------|
|-7--7777-7--6--6666-6-|-3--3333--3---3--3333--3-|-------------------------|
|----------------------|-------------------------|-3--3333--3---3--3333--3-|

 4.______________________
  .  ....  .   .  ....  .
|-------------------------|
|-------------------------|
|-------------------------|
|-5--5555--5---5--5555--5-|
|-------------------------|
|-------------------------|

play 1 time
  .  .... .  .  .... .  1. 3.____________    2.______________  4._____________
|----------------------|-------------------|------------------|---------------|
|----------------------|-------------------|------------------|---------------|
|----------------------|-------------------|------------------|---------------|
|----------------------|---555544442221111-|---55554444111111-|---555544441111|
|----------------------|-3-----------------|-3----------------|-3-------------|
|-0--0000-0--0--0000-0-|-------------------|------------------|---------------|



This tab is not permitted or any others off my page to by posted anywhere without
asking me in head of time. For all the time it takes me to do some of these tabs please
            
Hard to play? Try these video lessons and learn fast. | Correct




comments powered by Disqus
↑ Back to top | Tablatures and chords are parodies/interpretations of the original songs. You may use it for private study, scholarship, research or language learning purposes only