» » »

Unleashed, The Immortals Tabs (ver.1)

Artists:  A B C D E F G H I J K L M N O P Q R S T U V W X Y Z # 

The Immortals Tabs (ver.1)

Unleashed Tabs
Rating:
0/5 (0 votes)
The Immortals lessons Tabs too difficult? Try these video lessons and learn fast
                                               UNLEASHED - THE IMMORTALS
                          From the Album - SHADOWS IN THE DEEP
                         Copyright - CENTURY MEDIA RECORDS 1991
                             Version 1.0 December 15, 2002



For Questions, Comments, Newest Version, or Corrections contact


.  - palm mute           /  - slide up to
\  - slide down to       ~  - vibrato
h  - hammer on           b  - bend
p  - pull off            Suffixes for bend ^
ph - pinched harmonic     f - full bend    h - half bend
*  - see comment          r - release      t - tap bend
X  - Rest                 ~ - vibrato bend q - quarter bend
,  - slight palm mute    () - ghost note, sustained note
"  - Tromolo note        <> - Trill
t\ - Tap slide

Tuning: "B"E"A"D"F#"B"


Riff 1-A
|-----------------------------|-----------------------------|
|-----------------------------|-----------------------------|
|-----------------------------|-----------------------------|
|-----------------------------|-----------------------------|
|--2------2------1------------|--2------2------1--------3---|
|--0--0-0-0--0-0---3-2-1------|--0--0-0-0--0-0---3-2-1------|
      . .    . .                    . .    . .

Riff 1-B
|-----------------------------|-----------------------------|
|-----------------------------|-----------------------------|
|-----------------------------|-----------------------------|
|-----------------------------|-----------------------------|
|--2-------------1------------|--2-------------1--------3---|
|--0----------0----3-2-1------|--0----------0----3-2-1------|


Fill 1
|-----------------------------|-----------------------------|
|-----------------------------|-----------------------------|
|-----------------------------|-----------------------------|
|-----------------------------|-----------------------------|
|--2--------------------2--2--|--2----------pick-slide////--|
|--0--------------------0--0--|--0--------------------------|
                        .  .

Riff 2
|-----------------------------|-----------------------------|
|-----------------------------|-----------------------------|
|-----------------------------|-----------------------------|
|-----------------------------|-----------------------------|
|--2--------------------2--2--|--5--------------------5--5--|
|--0--------------------0--0--|--3--------------------3--3--|
|                             |                             |
|                             |                             |
|-----------------------------|-----------------------------|
|-----------------------------|-----------------------------|
|-----------------------------|-----------------------------|
|-----------------------------|-----------------------------|
|--8--------------------8--8--|-11-------------------11-//--|
|--6--------------------6--6--|--9--------------------9-//--|


Riff 3
|-----------------------------|-----------------------------|
|-----------------------------|-----------------------------|
|-----------------------------|-----------------------------|
|-------------------4------8--|-------------------4---------|
|-2------2----------2------6--|-2------2----------2------3--|
|-0--0-0-0--0-0-1-0----1-0----|-0--0-0-0--0-0-1-0----1-0-1--|
     . .    . . . .    . .         . .    . . . .    . .

Riff 4
|----------------------------------------|
|----------------------------------------|
|----------------------------------------|
|---------------------6------------------|
|--2--------5----8----4--------5----3----|
|--0--------3----6-------------3----1----|
|                                        |
|                                        |
|----------------------------------------|
|----------------------------------------|
|----------------------------------------|
|---------------------6------------------|
|--2--------5----8----4------------------|
|--0--------3----6-----------------------|


Riff 5
|------------------------------------|
|------------------------------------|
|------------------------------------|
|---------------------------6--------|
|--2--------5------3--------4--------|
|--0--------3------1-----------------|
|                                    |
|                                    |
|------------------------------------|
|------------------------------------|
|------------------------------------|
|------------------------------------|
|--2--------5------4--------3--------|
|--0--------3------2--------1--------|


End
|-----------------------------|------|
|-----------------------------|------|
|-----------------------------|------|
|-----------------------------|------|
|--2------2------1------------|--2x--|
|--0--0-0-0--0-0---3-2-1------|--0x--|
      . .    . .
            

comments powered by Disqus
↑ Back to top | Unleashed Tabs for The Immortals. Lyrics for acoustic guitar and electric guitar. Tablatures and chords are parodies/interpretations of the original songs. You may use it for private study, scholarship, research or language learning purposes only