» » »

Unleashed, Into Glory Ride Tabs (ver.1)

Artists:  A B C D E F G H I J K L M N O P Q R S T U V W X Y Z # 

Into Glory Ride Tabs (ver.1)

Unleashed Tabs
Rating:
0/5 (0 votes)
Into Glory Ride lessons Tabs too difficult? Try these video lessons and learn fast
                Tuning: 2.5 steps down (B)


Riff:1                                     Riff:2
|-----------------------------------------|-------------------------|
|-----------------------------------------|-------------------------|
|-----------------------------------------|-------------------------|
|------h-------------------h--------8-6-9-|-9---------------p-------|
|-----6-7-6-----8-7-6-----6-7-------5-4-7-|-7-8-xx8-xx8-xx-5-4-7----|
|-0-0-------0-0-6-5-4-0-0-----6-0-0-------|---6-xx6-xx6-xx----------|

Cont.                   Riff:3
|----------------------|--------------------------------------------|
|----------------------|--------------------------------------------|
|----------------------|--------------------------------------------|
|-9--------------------|----999---888---999-------------------------|
|-7-8-xx8-xx8-xx--p----|----777---666---777-----5544----------------|
|---6-xx6-xx6-xx-6-5-4-|-000---000---000----0066----555-------------|

Riff:4
|-------------------------------------------------------------------|
|-------------------------------------------------------------------|
|-------------------------------------------------------------------|
|-------------------------------------------------------------------|
|-------5544----------5544777-------5544----------5544777-8-7-6-----|
|-005566----555-005566--------005566----555-005566--------6-5-4-----|

Riff:5
|-------------------------------------------------------------------|
|-------------------------------------------------------------------|
|-------------------------------------------------------------------|
|------9-8-------9-8-8-7-5-------9-8-------9-8-8-7------------------|
|-2--2-7-6--2--2-7-6--------2--2-7-6--2--2-7-6-----8----------------|
|-0--0------0--0------------0--0------0--0--------------------------|

Riff:6
|-------------------------------------------------------------------|
|-------------------------------------------------------------------|
|-------------------------------------------------------------------|
|-9-999---9-8-------7-777--9-999---8-9-6-666------------------------|
|-7-777-7-----9-999--------7-777-7-----------8-888------------------|
|-------------------------------------------------------------------|
            

comments powered by Disqus
↑ Back to top | Unleashed Tabs for Into Glory Ride. Lyrics for acoustic guitar and electric guitar. Tablatures and chords are parodies/interpretations of the original songs. You may use it for private study, scholarship, research or language learning purposes only