» » »

In The Name Of God Tabs (ver.1)

Artists:  A B C D E F G H I J K L M N O P Q R S T U V W X Y Z # 

In The Name Of God Tabs (ver.1)

Unleashed
Rating:
0/5 (0 votes)

Hard to play? Try these video lessons and learn fast.
                -b-e-a-d-f#-b
|--------------------------------------------|
|--------------------------------------------|
|--------------------------------------------|
|--------------------------------------------|
|------------555555---666666---555666888666--|
|-3-333333666------666------666--------------|
  . .......................................

|--------------------------------------------|
|--------------------------------------------|
|--------------------------------------------|
|--------------------------------------------|
|------------444444---555555---444555777555--|
|-4-444444555------555------555--------------|
  . .......................................
|---------------------------------------------------|
|---------------------------------------------------|
|------8888877777------------101010101099999--------|
|-55555----------55555--77777---------------77777---|
|---------------------------------------------------|
|---------------------------------------------------|

|--------------------------------------------|
|--------------------------------------------|
|--------------------------------------------|
|--------------------------------------------|
|--------------------------------------------|
|-333333333333222222222220002223333333333333-|
  ..........................................
|--------------------------------------------|
|--------------------------------------------|
|--------------------------------------------|
|--------------------------------------------|
|----------5------5-------4-------4----------|
|-0-2-3--6---3--6----2--5----2--5------------|
  . .
|--------------------------------------------|
|--------------------------------------------|
|--------------------------------------------|
|--------------------------------------------|
|----------5-6-8-6-5---------4-5-7-5-4-------|
|-0-2-3--6-----------6--2--5-----------5-----|
  . .

|--------------------------------------------|
|--------------------------------------------|
|--------------------------------------------|
|--------------------------------------------|  guit II
|-555555555555444444444444245555555555555----|
|-333333333333222222222222023333333333333----|
  .......................................
|---------------------------|
|---------------------------|
|---------------------------|
|---------------------------|
|---5---4---2---4---5---4---|
|---3---2---0---2---3---2---|
            .   .

|--------------------------------------------|
|----3-4-6---3-4-6---2-3-5---2-3-5-----------|
|--3-------3-------2-------2-----------------|  guit I
|--------------------------------------------|
|--------------------------------------------|
|--------------------------------------------|

|--------------------------------------------------|
|--------------------------------------------------|
|--------------------------------------------------|
|-----7-8-7-----7-8-7-------6-7-6-------6-7-6------|
|-5-8-5-6-5-8-5-5-6-5-8-4-7-4-5-4-7-4-7-4-5-4-7-5--|
|-3-6-------6-3-------6-2-5-------5-2-5-------5-3--|

|-------------------------------------------------------------------------------|
|-------------------------------------------------------------------------------|
|-----------777888777------------777888777-------------666777666----------------|
|-5555555888---------888555555888---------8884444444777---------7774444444------|
|-----------------------------------------------------------------------------5-|
|-----------------------------------------------------------------------------3-|
            
Hard to play? Try these video lessons and learn fast. | Correct




comments powered by Disqus
↑ Back to top | Tablatures and chords are parodies/interpretations of the original songs. You may use it for private study, scholarship, research or language learning purposes only