» » »

Unleashed, Forever Goodbye Tabs (ver.1)

Artists:  A B C D E F G H I J K L M N O P Q R S T U V W X Y Z # 

Forever Goodbye Tabs (ver.1)

Unleashed Tabs
Rating:
3/5 (1 vote)
Forever Goodbye lessons Tabs too difficult? Try these video lessons and learn fast
                By Unleashed
Detune 2.5 steps (B)

Intro (and verse also)
|-------------------------|
|-------------------------|
|-------------------------|
|-------------------------| X4
|----------5-4-8----------|
|-00000--6----------------|

CHorus
|--------------------------|   |------------------------------|
|--------------------------|   |------------------------------|
|--------------------------|   |------------------------------|
|--------------------------|X2 |-7------6---10--7-----4/-slide down to
|--55555-------44444--8888-|   |-5--8---4---8---5--8--6/-nowhere in particular|
|---------6666-------------|   |----6--------------6-----------|


|-----------------------------|    |---------------------------------|
|-----------------------------|    |---------------------------------|
|-----------------------------|    |---------------------------------|
|-----------------------------|X4  |---------------------------------| X4
|-2-------2-----------8-----5-|    |-2-let ring-----5-----8----------|
|-0--0-0--0--0-0--0-6---0-6---|    |-0----------0-6---0-6------------|


|---------------------------|
|---------------------------|
|-----------trem pick.------|
|--------------12-11--------|
|--77777----13--------------|
|---------------------------|

That's it. Remember that the timing is not correct, so listen the song.
            

comments powered by Disqus
↑ Back to top | Unleashed Tabs for Forever Goodbye. Lyrics for acoustic guitar and electric guitar. Tablatures and chords are parodies/interpretations of the original songs. You may use it for private study, scholarship, research or language learning purposes only