» » »

Unleashed, Countess Bathory Tabs (ver.1)

Artists:  A B C D E F G H I J K L M N O P Q R S T U V W X Y Z # 

Countess Bathory Tabs (ver.1)

Unleashed Tabs
 Rating:
4/5 (4 votes)
Countess Bathory lessons Tabs too difficult? Try these video lessons and learn fast
                ---------------------------------------------------------------
"Countess Bathory" as performed by UNLEASHED
on the albums "Shadows In The Deep" & "Live From Vienna '93"
Century Media Recs.
Guitar II doubles Guitar I unless otherwise noted

KEY
.  - palm mute                  /  - slide up to
\  - slide down to              ~  - vibrato
h  - hammer on                  tr - trill
p  - pull off

TUNE TO B

SONG STRUCTURE
RIFF A X 6
RIFF B X 1
RIFF C X 2
RIFF A X 4
RIFF B X 1
RIFF C X 2
RIFF A X 4
RIFF D1 X 1
RIFF D2 X 3
RIFF E X 1
RIFF A X 4
RIFF B X 1
RIFF C X 1
RIFF A X 4
RIFF D1 X 1
RIFF D2 X 3
Tremolo pick while sliding finger up
  and down neck for approx. 14 measures
RIFF F
---------------------------------------------
RIFF A

|------------------|-----------------|
|------------------|-----------------|
|------------------|-----------------|
|--7--7---77333--3-|--5--5--55-------|
|--5--5---55111--1-|--3--3--33666--6-|
|------------------|----------444--4-|

RIFF B

|------------------|---------------------|
|------------------|---------------------|
|------------------|---------------------|
|---------------5--|---------------5--3--|
|--5--5--5-5-5--3--|--5--5--5-5-5--3--1--|
|--3--3--3-3-3-----|--3--3--3-3-3--------|
         softly             softly

RIFF B (cont'd.)

|------------------|-----------|
|------------------|-----------|
|------------------|-----------|
|---------------5--|-----------|
|--5--5--5-5-5--3--|--5--------|
|--3--3--3-3-3-----|--3--------|
         softly

RIFF C

|--------|---------|--------|---------|
|--------|---------|--------|---------|
|--------|---------|--------|---------|
|--------|---------|--------|------3--|
|--5-----|-(5)--3--|--5-----|-(5)--1--|
|--3-----|-(3)--1--|--3-----|-(3)-----|

RIFF D1

|--------|---------------|------|--------|
|--------|---------------|------|--------|
|--------|---------------|------|--------|
|--2-----|-2-222-222-222-|-225--|--4--3--|
|--0-----|-0-000-000-000-|-003--|--2--1--|
|--------|---------------|------|--------|
           . ... ... ...   ..

RIFF D2
                                                     |+1.,2.+ (3. on rpt.)|
|---------------|-----------------|------|--------|
|---------------|-----------------|------|--------|
|---------------|-----------------|------|--------|
|--2--2-222-222-|-222-222-222-222-|-225--|--4--3--|
|--0--0-000-000-|-000-000-000-000-|-003--|--2--1--|
|---------------|-----------------|------|--------|
      . ... ...   ... ... ... ...   ..
RIFF D2 (cont'd.)
+3.(first time thru)+
|--------|-----|-----|
|--------|-----|-----|
|--------|-----|-----|
|--4-----|--7--|-(7)-|
|--2--3--|--5--|-(5)-|
|-----1--|-----|-----|



RIFF E
(Guitar II)                A#5 C5
(Guitar I)
|-----------------|--------------|
|-----------------|--------------|
|-----------------|--------------|
|-0-3-2-3-5-3-2-0-|-3-2-0---3--5-|
|-----------------|-------0-1--3-|
|-----------------|--------------|

RIFF E (cont'd.)
(Guitar II)                A#5
(Guitar I)
|-----------------|------------|
|-----------------|------------|
|-----------------|------------|
|-0-3-2-3-5-3-2-0-|-3-2-0---3--|
|-----------------|-------0-1--|
|-----------------|------------|

RIFF E (cont'd.)
(Guitar II)                A#5 C5
(Guitar I)
|-----------------|--------------|
|-----------------|--------------|
|-----------------|--------------|
|-0-3-2-3-5-3-2-0-|-3-2-0---3--5-|
|-----------------|-------0-1--3-|
|-----------------|--------------|

RIFF E (cont'd.)
(both Guitars)
|-----------------|--------------|
|-----------------|--------------|
|-----------------|--------------|
|-0-3-2-3-5-3-2-0-|-3-2-0---3--5-|
|-----------------|-------0-1--3-|
|-----------------|--------------|

RIFF F

|------|
|------|
|------|
|------|
|--7\--|
|--5\--|
            
Submit corrections

comments powered by Disqus
↑ Back to top | Unleashed Tabs for Countess Bathory. Lyrics for acoustic guitar and electric guitar. Tablatures and chords are parodies/interpretations of the original songs. You may use it for private study, scholarship, research or language learning purposes only