» » »

Unleashed, Before The Creation Of Time Tabs (ver.2)

Artists:  A B C D E F G H I J K L M N O P Q R S T U V W X Y Z # 

Before The Creation Of Time Tabs (ver.2)

Unleashed Tabs
 Rating:
4/5 (4 votes)
Before The Creation Of Time lessons Tabs too difficult? Try these video lessons and learn fast
1
                Taken from Album ''Where No Life Dwells''
Year 1991
Music&Lyrics  by Johnny Hedlund 

Listen closely for riff order 
Tuning: 2.5 steps down (B)

Riff:1                    Riff:1b 
|-----------------------------|-------------------------------------|
|-----------------------------|-------------------------------------|
|-----------------------------|-------------------------------------|
|-----------------------------|-------------------------------------|
|-2-----5-----8-----5---7---8-|-----5-----8------5---7---8----------|
|-0-000-3-000-6-000---0---0---|-000-3-000-6-000----0---0------------|
Riff:2  VERSE
|-------------------------------------| 
|-------------------------------------|
|-------------------------------------|
|-------------------------------------|
|-2---------3-------444333----------11|
|-0-000-000-1-000222------000-000-11--|
Riff:3 chorus
|---------------------------------------------|
|---------------------------------------------|
|---------------------------------------------|
|-------888----------------888----------------|
|-777888---888777----777888---888777888777666-|
|----------------888--------------------------|

Riff:4                
|------------------|
|------------------|
|------------------|
|-9--5--8--4-------|
|-7--3--6--2-------|
|------------------|

Riff:4b                              Riff:4c
|-----------------------------------|-------------------------------|
|-----------------------------------|-------------------------------|
|---9-10-9----5-6-5---8-9-8---4-5-4-|---9-10---6-5---8-9---5-4------|
|-----------------------------------|-------------------------------|
|-7---------3-------6-------2-------|-7------3-----6-----2----------|
|-----------------------------------|-------------------------------|

Riff:4d                       Riff:5
|-----------------------------|----------------------------------------|
|-----------------------------|----------------------------------------|
|-----------------------------|----------------------------------------|
|---9-10---6-5---8-9---5-4----|-------h-p--3-------h-p--3-------h-p----|
|-7------3-----6-----2-----7~-|------2-3-2-1------2-3-2-1------2-3-2-7-|
|-----------------------------|-00-0---------00-0---------00-0---------|

Riff:5a                                                  
|-------------------------------------------------------|
|-------------------------------------------------------|
|-------------------------------------------------------|
|--------------h-p--3-------h-p--3-------h-p------------|
|-111---------2-3-2-1------2-3-2-1------2-3-2-7----888--|
|----111-00-0---------00-0---------00-0---------666-----|


End after Riff 1b
|-----------|
|-----------|
|-----------|
|--2--------|
|--2--------|
|--0--------|
            
Submit corrections

comments powered by Disqus
↑ Back to top | Unleashed Tabs for Before The Creation Of Time. Lyrics for acoustic guitar and electric guitar. 1 Tablatures and chords are parodies/interpretations of the original songs. You may use it for private study, scholarship, research or language learning purposes only