» » »

Mary Had A Little Lamb Tabs (ver.1)

Artists:  A B C D E F G H I J K L M N O P Q R S T U V W X Y Z # 

Mary Had A Little Lamb Tabs (ver.1)

Unknown
Rating:
0/5 (0 votes)

Hard to play? Try these video lessons and learn fast.
                e----0-----------0--0--0-----------0--3--3-----------------
b-------3--1--3-----------3--3--3--------------------------
g----------------------------------------------------------
d----------------------------------------------------------
a----------------------------------------------------------
e----------------------------------------------------------

e----0-----------0--0--0--------0--------------------------
b-------3--1--3-----------3--3-----3--1--------------------
g----------------------------------------------------------
d----------------------------------------------------------
a----------------------------------------------------------
e----------------------------------------------------------


Sorry if the tab is wrong, but my High E string snapped and it was kinda hard to listen to the song and think of the fret in my head at the same time.
            
Hard to play? Try these video lessons and learn fast. | Correct




comments powered by Disqus
↑ Back to top | Tablatures and chords are parodies/interpretations of the original songs. You may use it for private study, scholarship, research or language learning purposes only