>
 >
Swans

Swans Guitar Tabs

Unkle Bob - Swans chords, tabs, tablatures, lyrics

Guitar lessons | Add/correct | Request | Top 50 tabs Artists:  A B C D E F G H I J K L M N O P Q R S T U V W X Y Z 0-9

Swans Guitar Tabs – Unkle Bob

CD, Sheet music, Poster

Do you like Swans? Share with your friends now
Tabs
Swans" by Unkle Bob

Capo at 2nd fret, 4/4 time in Dropped D (D A D G B E)
(8th note triplet feel)

Verses "By my side, you`ll never be..."

 G                        Bm7
(F)                      (Am7)
|------------------------|------------3-------------|
|-0--------1-------3-----|--1------------1----------|
|----0-------0-------0---|-----0------------0-------|
|-------2-------2------2-|---------2------------2---|
|------------------------|--0-----------------------|
|-3--------3-------3-----|--------------------------|

 G                        Bm7
(F)                      (Am7)
|------------------------|------------3-------------|
|-0--------1-------3-----|--1------------1----------|
|----0-------0-------0---|-----0------------0-------|
|-------2-------2------2-|---------2------------2---|
|------------------------|--0-----------------------|
|-3--------3-------3-----|--------------------------|

Break 1 "..and im never coming home again..."
 Bm7                      G
(Am7)                    (F)

|-------------------------|--------------------------|
|----------1--------------|----------1---------------|
|-----0-----------0----0--|---2------------2------2--|
|--------2----2------2----|-------3-----3------3-----|
|--0----------------------|--------------------------|
|-------------------------|-3------------------------|

 D                        Bm7
(C)                      (Am7)
|-------------------------|--------------------------|
|--------------1----------|----------1---------------|
|----------0------0-------|-----0-----------0-----0--|
|-----2h3-------------3---|--------2-----2-----2-----|
|--3----------------------|--0-----------------------|
|-------------------------|--------------------------|

 G                       D
(F)                     (C)

|-------------------------|--------------------------|
|----------1--------------|----------------1---------|
|---2------------2-----2--|-----------0--------0-----|
|-------3-----3-----3-----|------2h3--------------3--|
|-------------------------|---3----------------------|
|-3-----------------------|--------------------------|

Break 2 " I wanted to tell you i`d changed...."
 A                        Bm7
(G)                      (Am7)
|-----------3-------------|--------------------------|
|-----0-----------0----0--|----------1---------------|
|--------0-----0----0-----|-----0-----------0----0---|
|-0-----------------------|--------2-----2----2------|
|-------------------------|--0-----------------------|
|-------------------------|--------------------------|

"I wanted to tell you that things would be different"

 D                        A/C#                           
(C)                      (G/B) 
|-------------------------|--------------------------|
|-----------1-------------|----------3---------------|
|-----0-----------0----0--|-----0-----------0----0---|
|--------2-----2----2-----|--------0-----0----0------|
|--3----------------------|--2-----------------------|
|-------------------------|--------------------------|

" This time....."
 Em                       A
(Dm)                     (G)
|-----------1-------------|------------3-------------|
|-----3-----------3----3--|------0-----------0----0--|
|--------2-----2----2-----|---------0-----0----0-----|
|--0----------------------|--0-----------------------|
|-------------------------|--------------------------|
|-------------------------|--------------------------|


"I see you....you see me differently..."

 D                        A/C#                           
(C)                      (G/B) 
|-------------------------|--------------------------|
|-----------1-------------|----------3---------------|
|-----0-----------0----0--|-----0-----------0----0---|
|--------2-----2----2-----|--------0-----0----0------|
|--3----------------------|--2-----------------------|
|-------------------------|--------------------------|

 Bm7                      G                           
(Am7)                    (F) 
|-------------------------|--------------------------|
|-----------1-------------|-----------1--------------|
|-----0-----------0----0--|-----0-----------0----0---|
|--------2-----2----2-----|---------2----2----2------|
|--0----------------------|--------------------------|
|-------------------------|--3-----------------------|

Chorus "You tell me that you love me but you never 
        want to see me again"

 Bm7                      G
(Am7)                    (F)
   >        >        >       >        >        > 
|--3--3--3--3--3--3--3--3-|--3--3--3--3--3--3--3--3--|
|--1--1--1--1--1--1--1--1-|--1--1--1--1--1--1--1--1--|
|--0--0--0--0--0--0--0--0-|--2--2--2--2--2--2--2--2--|
|--2--2--2--2--2--2--2--2-|--3--3--3--3--3--3--3--3--|
|--0--0--0--0--0--0--0--0-|--x--x--x--x--x--x--x--x--|
|-------------------------|--3--3--3--3--3--3--3--3--|

 D                       Bm7
(C)                     (Am7)
   >        >        >       >        >        > 
|--3--3--3--3--3--3--3--3-|--3--3--3--3--3--3--3--3--|
|--1--1--1--1--1--1--1--1-|--1--1--1--1--1--1--1--1--|
|--0--0--0--0--0--0--0--0-|--0--0--0--0--0--0--0--0--|
|--2--2--2--2--2--2--2--2-|--2--2--2--2--2--2--2--2--|
|--3--3--3--3--3--3--3--3-|--0--0--0--0--0--0--0--0--|
|-------------------------|--------------------------|

 G                        D
(F)                      (C)
   >        >        >       >        >        > 
|--3--3--3--3--3--3--3--3-|--3--3--3--3--3--3--3--3--|
|--1--1--1--1--1--1--1--1-|--1--1--1--1--1--1--1--1--|
|--2--2--2--2--2--2--2--2-|--0--0--0--0--0--0--0--0--|
|--3--3--3--3--3--3--3--3-|--2--2--2--2--2--2--2--2--|
|--x--x--x--x--x--x--x--x-|--3--3--3--3--3--3--3--3--|
|--3--3--3--3--3--3--3--3-|--------------------------|





Comments


Popular Unkle Bob tabs & chords
Put A Record On Chords
Put A Record On 1 Chords
Satellite Chords
The Hit Parade Chords
One By One Tabs
Proud Tabs
Put A Record On Tabs
Put A Record On Ukulele
Satellite Ukulele
The Hit Parade Ukulele


Song lyrics



↑ Back to top | Tablatures and chords are parodies/interpretations of the original songs. You may use it for private study, scholarship, research or language learning purposes only
© 2014 AZChords.com Contact us | Privacy policy | DMCA | Add/correct tabs | Request tabs | Top 50 tabs