» » »

Put A Record On Tabs (ver.1)

Artists:  A B C D E F G H I J K L M N O P Q R S T U V W X Y Z # 

Put A Record On Tabs (ver.1)

Unkle Bob
Rating:
0/5 (0 votes)

Hard to play? Try these video lessons and learn fast.
                "Put a Record On" Unkle Bob

Capo 2nd fret. 
4/4 time

Intro
Am                         C
|--------------------------|------------------------|
|-----------3--------------|-----------3------------|
|-----4---------4------2---|-----2----------2----2--|
|--------4----------4------|--------4----------4----|
|--2-----------------------|--5---------------------|
|-------------2------------|-------------5----------|

Am                         C
|--------------------------|------------------------|
|-----------3--------------|-----------3------------|
|-----4---------4------2---|-----2----------2----2--|
|--------4----------4------|--------4----------4----|
|--2-----------------------|--5---------------------|
|-------------2------------|-------------5----------|



Verses " I put a record on

Am                         C
|--------------------------|------------------------|
|-----------3--------------|-----------3------------|
|-----4---------4------2---|-----2----------2----2--|
|--------4----------4------|--------4----------4----|
|--2-----------------------|--5---------------------|
|-------------2------------|-------------5----------|

Am                         F
|--------------------------|------------------------|
|-----------3--------------|-----------3------------|
|-----4---------4------2---|-----4----------4----2--|
|--------4----------4------|--------5----------4----|
|--2-----------------------|--5---------------------|
|-------------2------------|-------------5----------|

C                          G
|--------------------------|------------------------|
|-----------3--------------|-----------2------------|
|-----2---------2------2---|-----2----------2----2--|
|--------4----------4------|--------2----------2----|
|--5-----------------------|--4---------------------|
|-------------5------------|-------------5----------|

C                          C
|--------------------------|------------------------|
|-----------3--------------|-----------3------------|
|-----2---------2------2---|-----2----------2----2--|
|--------4----------4------|--------4----------4----|
|--5-----------------------|--5---------------------|
|-------------5------------|-------------5----------|

Bridge "You dont, you dont have to sympathise"

Em                         F
|--------------------------|------------------------|
|-----------2--------------|-----------3------------|
|-----2----------2-----2---|-----4-----------4---4--|
|--------4----------4------|--------5----------5----|
|--------------------------|------------------------|
|--2-----------------------|--3---------------------|

G                         
|--------------------------|------------------------|
|-----------2--------------|--3p2---------2---------|
|-----2----------2-----2---|---------4-------4------|
|--------2----------2------|-------2---2--------2---|
|--------------------------|------------------------|
|--5-----------------------|--5---------------------|

Em                         F
|--------------------------|------------------------|
|-----------2--------------|-----------3------------|
|-----2----------2-----2---|-----4-----------4---4--|
|--------4----------4------|--------5----------5----|
|--------------------------|------------------------|
|--2-----------------------|--3---------------------|

G                         
|--------------------------|------------------------|
|-----------2--------------|-----------2------------|
|-----2----------2-----2---|----2------------2---2--|
|--------2----------2------|-------2-----------2----|
|--------------------------|------------------------|
|--5-----------------------|--5---------------------|

Verse "Im ok for drinking"

Move to strumming on "drinking"
Rhythm (1+2+..+4+) down,up,down,up..up,down,up

Break "This time you`ll find some mother gonna..."

Am-G-F-E (repeat)

Outro "Put it on, i will try and dry my eyes"

F - C - G (repeat) end on Am
            
Hard to play? Try these video lessons and learn fast. | Correct




comments powered by Disqus
↑ Back to top | Tablatures and chords are parodies/interpretations of the original songs. You may use it for private study, scholarship, research or language learning purposes only