>
 >
One By One

One By One Guitar Tabs

Unkle Bob - One By One chords, tabs, tablatures, lyrics

Guitar lessons | Add/correct | Request | Top 50 tabs Artists:  A B C D E F G H I J K L M N O P Q R S T U V W X Y Z 0-9

One By One Guitar Tabs – Unkle Bob

CD, Sheet music, Poster

Do you like One By One? Share with your friends now
Tabs
"One By One" Unkle Bob

Capo at 4th fret. 
Waltz time 3/4.

Verses "One by one...."


|---------------------------|------------------------|
|---------------7-----------|------------7-----------|
|----------8--------8-------|---------8------8-------|
|------4-----------------4--|------4-------------4---|
|--6------------------------|--4---------------------|
|---------------------------|------------------------|

|---------------------------|--4---------------------|
|---------------7-----------|------7-----7-----------|
|----------8--------8-------|---------------8--------|
|------4-----------------4--|---------4----------4---|
|---------------------------|------------------------|
|--7------------------------|------------------------|



Chorus "Life on the Road...."

Em - G - D - A (Rhythm 1..+3+|1..+3+|)

|--4-----------4--4--4------|--4---------4--4--4-----|
|--4-----------4--4--4------|--4---------4--4--4-----|
|--4-----------4--4--4------|--4---------4--4--4-----|
|--6-----------6--6--6------|--6---------6--6--6-----|
|--6-----------6--6--6------|--6---------6--6--6-----|
|--4-----------4--4--4------|--4---------4--4--4-----|

|---------------------------|------------------------|
|--7-----------7--7--7------|--7---------7--7--7-----|
|--4-----------4--4--4------|--4---------4--4--4-----|
|--4-----------4--4--4------|--4---------4--4--4-----|
|--6-----------6--6--6------|--6---------6--6--6-----|
|--7-----------7--7--7------|--7---------7--7--7-----|

|--6-----------6--6--6------|--4h6----6--6--6--6-----|
|--7-----------7--7--7------|--7------7--7--7--7-----|
|--6-----------6--6--6------|--6------6--6--6--6-----|
|--4-----------4--4--4------|--4------4--4--4--4-----|
|--4-----------4--4--4------|--4------4--4--4--4-----|
|---------------------------|------------------------|

|--4-----------4--4--4------|--4-------4--4--4--4----|
|--6-----------6--6--6------|--6h7-----7--7--7--6----|
|--6-----------6--6--6------|--6-------6--6--6--6----|
|--6-----------6--6--6------|--6-------6--6--6--6----|
|--4-----------4--4--4------|--4-------4--4--4--4----|
|---------------------------|------------------------|

Break "Is this the way to be"

|--4-----------4--4--4------|--4---------4--4--4-----|
|--7-----------7--7--7------|--7---------7--7--7-----|
|--8-----------8--8--8------|--8---------8--8--8-----|
|--4-----------4--4--4------|--4---------4--4--4-----|
|--6-----------6--6--6------|--4---------4--4--4-----|
|---------------------------|------------------------|

|--4------------------------|------------------------|
|--7------------------------|------------------------|
|--8------------------------|------------------------|
|--4------------------------|------------------------|
|--x------------------------|------------------------|
|--7------------------------|------------------------|

|--9-----------9--9--9------|--9-----x--7--x---4-----|
|--7-----------7--7--7------|--7-----x--7--x---7-----|
|--8-----------8--8--8------|--8-----x--8--x---8-----|
|--4-----------4--4--4------|--4-----x--4--x---4-----|
|--6-----------6--6--6------|--6-----x--6--x---6-----|
|--4-----------4--4--4------|--4---------------4-----|

|--4-----------4--4--4------|--4---------4--4--4-----|
|--7-----------7--7--7------|--7---------7--7--7-----|
|--8-----------8--8--8------|--8---------8--8--8-----|
|--4-----------4--4--4------|--4---------4--4--4-----|
|--6-----------6--6--6------|--6---------6--6--6-----|
|--4-----------4--4--4------|--4---------4--4--4-----|

Outro (Harmony line played under verse part)

|---------------------------|------------------------|
|---------------7-----------|------------7-----------|
|----------8--------8-------|---------8------8-------|
|------4-----------------4--|------4-------------4---|
|--9------------------------|--8---------------------|
|---------------------------|------------------------|

|---------------------------|--4---------------------|
|---------------7-----------|------7-----7-----------|
|----------8--------8-------|---------------8--------|
|------4-----------------4--|---------4----------4---|
|--6------------------------|------------------------|
|---------------------------|------------------------|





Comments


Popular Unkle Bob tabs & chords
Put A Record On Chords
Put A Record On 1 Chords
Satellite Chords
The Hit Parade Chords
Proud Tabs
Put A Record On Tabs
Swans Tabs
Put A Record On Ukulele
Satellite Ukulele
The Hit Parade Ukulele


Song lyrics



↑ Back to top | Tablatures and chords are parodies/interpretations of the original songs. You may use it for private study, scholarship, research or language learning purposes only
© 2014 AZChords.com Contact us | Privacy policy | DMCA | Add/correct tabs | Request tabs | Top 50 tabs