» » »

Hold My Hand Tabs (ver.1)

Artists:  A B C D E F G H I J K L M N O P Q R S T U V W X Y Z # 

Hold My Hand Tabs (ver.1)

Unkle
Rating:
0/5 (0 votes)

Hard to play? Try these video lessons and learn fast.
                (Intro)

I don't have that much experience for tabbing songs and there was no tabs for this one 
the net so I gave it a try. It's just the begining though.

As you can tell the very beginning comes on with a train, and then the bass starts playing..

(0:28)
e|-----------------------------------------------------------------|
B|-----------------------------------------------------------------|
G|--99-7-9--9-7-9--9-7-9--4-5-7---99-12-9--9-7-9--9-7-9--4-5-7---99|
D|--xx-x-x--x-x-x--x-x-x--x-x-x---xx-x -x--x-x-x--x-x-x--x-x-x---xx|
A|--77-5-7--7-5-7--7-5-7--2-3-5---77-10-7--7-5-7--7-5-7--2-3-5---77|
E|-----------------------------------------------------------------| -->>>

e|-----------------------------------------------------------------|
B|-----------------------------------------------------------------|
G|7-9--9-7-9--9-7-9--12-12-12---9--77-9--77--9--77-9--4-5-7---99-7-|
D|x-x--x-x-x--x-x-x-- x-x -x ---x--xx-x--xx--x--xx-x--x-x-x---xx-x-|
A|5-7--7-5-7--7-5-9--10-10-10---7--55-7--55--7--55-7--2-3-5---77-5-|
E|-----------------------------------------------------------------| -->>>

e|-----------------------------------------------------------------|
B|-----------------------------------------------------------------|
G|9--9-7-9--9-7-9--4-5-7---99-7-9--7-12-9--7-12-9--4-5-7---99-7-9--|
D|x--x-x-x--x-x-x--x-x-x---xx-x-x--x- x-x--x- x-x--x-x-x---xx-x-x--|
A|7--7-5-7--7-5-7--2-3-5---77-5-7--5-10-7--5-10-7--2-3-5---77-5-7--|
E|-----------------------------------------------------------------| -->>>

e|-----------------------------------------------------------------|
B|-----------------------------------------------------------------|
G|9-7-9--9-7-9--12-12-12-------------------------------------------|
D|x-x-x--x-x-x-- x- x- x-------------------------------------------|
A|7-5-7--7-5-7--10-10-10-------------------------------------------|
E|-----------------------------------------------------------------|
            
Hard to play? Try these video lessons and learn fast. | Correct




comments powered by Disqus
↑ Back to top | Tablatures and chords are parodies/interpretations of the original songs. You may use it for private study, scholarship, research or language learning purposes only