» » »

Unkle, Burn My Shadow Tabs (ver.1)

Artists:  A B C D E F G H I J K L M N O P Q R S T U V W X Y Z # 

Burn My Shadow Tabs (ver.1)

Unkle Tabs
Rating:
3/5 (3 votes)
Hard to play? Try these video lessons and learn fast.
                -----------------------------------------------------------------
-----------------------------------------------------------------


Tuning: Standard

So guys :) i heared this song in the Assassin's Creed Brotherhood trailer and i wanted 
play it at all costs.. didn't found the tabs for the electric guitar and the so I made 
myself.

THIS IS MY FIRST TAB EVER, IF YOU HAVE SUGGESTIONS TELL ME :) Enjoy this song!


Guitar 1 ( Chords ) "Am, Em, F, Am, Em" ( Repeat ) From Start to End ( Except when 
and Piano )

        AM                 F                  EM
                  Barrè
E|--------------    |-1------------     -0------------|
B|---1----------    |-1------------     -0------------|
G|-------2------    |----2---------     -0------------|
D|-------2------    |-------3------     --------2-----|
A|-0------------    |-------3------     --------2-----|
E|-0------------    |-1------------     -0------------|

Guitar 2 ( Elettric, Light Distorsion ) From 1:19 to 1:59

Repeat this Riff 2 Times

E|---------------------------------------------------------------|
B|---------------------------------------------------------------|
G|---------------------------------------------------------------|
D|---10---10---10---10---10-10-----10---10---10---10---10-10-----|
A|---------------------------------------------------------------|
E|---------------------------------------------------------------|

E|---------------------------------------------------------------|
B|---------------------------------------------------------------|
G|---------------------------------------------------------------|
D|---9---9---9---9---9-9-----9---9---9---9---9-9-----------------|
A|---------------------------------------------------------------|
E|---------------------------------------------------------------|

E|---------------------------------------------------------------|
B|---------------------------------------------------------------|
G|---------------------------------------------------------------|
D|---7---7---7---7---7-7-----7---7---7---7---7-7-----------------|
A|---------------------------------------------------------------|
E|---------------------------------------------------------------|

E|---------------------------------------------------------------|
B|---------------------------------------------------------------|
G|---------------------------------------------------------------|
D|---10---10---10---10---10-10-----9---9---9---9---9-9-----------|
A|---------------------------------------------------------------|
E|---------------------------------------------------------------|

Piano    From 2:19 to 2:45

                        ( Is "12 - 0 - 10" Repeated 8 times )

E|---12-0-10-12-0-10-12-0-10-12-0-10-12-0-10-12-0-10-12-0-10-12-0-10-|
B|-------------------------------------------------------------------|
G|-------------------------------------------------------------------|
D|-------------------------------------------------------------------|
A|-------------------------------------------------------------------|
E|-------------------------------------------------------------------|

                        ( Is "8 - 0 - 7" Repeated 8 times    )

E|---8-0-7-8-0-7-8-0-7-8-0-7-8-0-7-8-0-7-8-0-7-8-0-7-8-0-7-------|
B|---------------------------------------------------------------|
G|---------------------------------------------------------------|
D|---------------------------------------------------------------|
A|---------------------------------------------------------------|
E|---------------------------------------------------------------|

                        ( Is "7 - 0 - 5" Repeated 8 times    )

E|---7-0-5-7-0-5-7-0-5-7-0-5-7-0-5-7-0-5-7-0-5-7-0-5-------------|
B|---------------------------------------------------------------|
G|---------------------------------------------------------------|
D|---------------------------------------------------------------|
A|---------------------------------------------------------------|
E|---------------------------------------------------------------|

                        ( is "8 - 0 - 7" and "7 - 0 - 5" Repeated 4 Times Each one    )

E|---8-0-7-8-0-7-8-0-7-8-0-7-8-0-7-7-0-5-7-0-5-7-0-5-7-0-5-------|
B|---------------------------------------------------------------|
G|--------------------------------------------SLOWS DOWN THERE---|
D|---------------------------------------------------------------|
A|---------------------------------------------------------------|
E|---------------------------------------------------------------|


Guitar 2 ( Elettric, Medium Distortion ) Repeated 15 Times (2:45 to 3:30)

E|---------------------------------------------------------------|
B|---------------------------------------------------------------|
G|---------------------------------------------------------------|
D|---10---10---10---10---10---10---10---10\11--------------------|
A|---------------------------------------------------------------|
E|---------------------------------------------------------------|

Piano ( SLOW )  Repeated 8 Times  (3:30 to 4:08)

E|---8-----7-----5--5--5-----------------------------------------|
B|-------------------------8-------------------------------------|
G|---------------------------------------------------------------|
D|---------------------------------------------------------------|
A|---------------------------------------------------------------|
E|---------------------------------------------------------------|

Guitar 2 ( Increase Middle there, Heavy distortion ) Repeat this riff 2 Times (4:08 to END)

E|---------------------------------------------------------------|
B|---------------------------------------------------------------|
G|------------------------------------------FIRST TIME REPEAT X4 |
D|---10---10---10---10---10---10-10---------THEN REPEAT X2-------|
A|-----12---12---12---12---12--12-12-----------------------------|
E|---------------------------------------------------------------|

E|---------------------------------------------------------------|
B|---------------------------------------------------------------|
G|---------------------------------------------------------------|
D|---9---9---9---9---9---9--9-----------REPEAT X2----------------|
A|----10--10--10--10--10--10-10----------------------------------|
E|---------------------------------------------------------------|

E|---------------------------------------------------------------|
B|---------------------------------------------------------------|
G|---------------------------------------------------------------|
D|---7---7---7---7---7---7--7------------REPEAT X2---------------|
A|-----8---8---8---8---8---8--8----------------------------------|
E|---------------------------------------------------------------|

E|---------------------------------------------------------------|
B|---------------------------------------REPEAT X2---------------|
G|---------------------------------------------------------------|
D|---10---10---10---10---10---10-10---9---9---9---9---9---9--9---|
A|-----12---12---12---12---12--12-12---10--10--10--10--10--10-10-|
E|---------------------------------------------------------------|


END
            

comments powered by Disqus
↑ Back to top | Unkle Tabs for Burn My Shadow. Lyrics for acoustic guitar and electric guitar. Tablatures and chords are parodies/interpretations of the original songs. You may use it for private study, scholarship, research or language learning purposes only