» » »

United Live, The Stand Tabs (ver.1)

Artists:  A B C D E F G H I J K L M N O P Q R S T U V W X Y Z # 

The Stand Tabs (ver.1)

United Live Tabs
Rating:
0/5 (0 votes)
The Stand lessons Tabs too difficult? Try these video lessons and learn fast
                INTRO:
e---------------------------------------------------------|
B--2------------------------------------------------------|
G--2------------------------------------------------------|
D--2------------------------------------------------------|
A---------------------------------------------------------|
E---------------------------------------------------------|

Verse 1:
e------2-------2---2-------------------------------------|
B--2---3---2---2---3-------------------------------------|
G--2---2---2---2---2-------------------------------------|
D--2-------2---4-----------------------------------------|
A----------4---4-----------------------------------------|
E--------------2-----------------------------------------|

Verse 2&3:
e-------2---------2----2----------------------------------|
B--2----3----2----2----3----------------------------------|
G--2----2----2----2----2----------------------------------|
D--2---------2----4---------------------------------------|
A------------4----4---------------------------------------|
E-----------------2---------------------------------------|

Pre-Chorus
e--2----2----2----2---------2-----------------------------|
B--3----3----2----3---------2-----------------------------|
G--2----4----2----2----1----2-----------------------------|
D-------4----4---------2----4-----------------------------|
A-------2----4---------2----4-----------------------------|
E-------o----2--------------2-----------------------------|

Pre-Chorus 2:
e--2--2--2-----2-----|--4x----2--------2--2--------2------|
B--3--3--2--2--------|--4x----3--2-----2--3--2-----2------|
G--2--4--2--2--2--1--|--4x----2--2--1--2--2--2--1--2------|
D-----4--4--2-----2--|--4x-------2--2--4-----2--2--4------|
A-----2--4-----2--2--|--4x----------2--4--------2--4------|
E-----o--2-----o-----|--4x-------------2-----------2------|

Chorus:
e--4x----2--------2--|--2--------2--2--2-----2-----2------|
B--4x----3--2-----2--|--3--2-----3--3--2--2--3--1--3------|
G--4x----2--2--1--2--|--2--2--1--2--4--2--2--4--2--2------|
D--4x-------2--2--4--|--------2-----4--4--2--4--2---------|
A--4x----------2--4--|--------2-----2--4-----2------------|
E--4x-------------2--|--------------o--2-----o------------|


Hallelujh:
e-------2----2--------------------------------------------|
B--2----3----2---------2----------------------------------|
G--2----2----2----1----2----------------------------------|
D--2---------4----2----2----------------------------------|
A------------4----2---------------------------------------|
E------------2--------------------------------------------|
            

comments powered by Disqus
↑ Back to top | United Live Tabs for The Stand. Lyrics for acoustic guitar and electric guitar. Tablatures and chords are parodies/interpretations of the original songs. You may use it for private study, scholarship, research or language learning purposes only