» » »

Take It All Tabs (ver.1)

Artists:  A B C D E F G H I J K L M N O P Q R S T U V W X Y Z # 

Take It All Tabs (ver.1)

United Live
Rating:
0/5 (0 votes)

Hard to play? Try these video lessons and learn fast.
                I tabbed this as close as possible to the song. If you
want, Guitar 1 could play along with Guitar 2 during
those silences

Guitar 1 

Verse
|----------------------14------------------------12--|
|--14-14--12-12--11-11-------14-14--12-12--11-11-----|
|----------------------------------------------------|   
|----------------------------------------------------|
|----------------------------------------------------|
*with delay, notes played twice. without delay, it
sounds like notes are played 3 times **the top e 14 and
12 could be played with mute similar to 14x14x14xx 

Pre-Bridge
1:42"
|-----------------------|
|-----------------------|
|--4444-6666-8888-9999--|   
|--2222-4444-6666-7777--|
|-----------------------|

Chorus
|--------------------------------------------------------------------|
|-12-12-12-------11-11-11-11-11-11-11-11-11-12-12-12-12-12-12-12-12--|
|----------11-11-----------------------------------------------------|  
|--------------------------------------------------------------------|
|--------------------------------------------------------------------|
*does not represent the exact number, but it's close enough
**BARELY heard in the cd. feel free to improv

Guitar 2

0:25"                   0:41"          
|-----------------------|--------------|
|--444--444--444-33-88--|--------------|
|--444--444--444-33-88--|--66--66--22--|   Verse
|--222--222--222-11-66--|--66--66--22--|
|-----------------------|--44--44--00--|

0:45"                  
|---------------------------|
|--4-----------4--------8---|
|--4--4--6--2--4--4--6--8---|  Chorus
|--2--4--6--2--2--4--6--6---|
|-----2--4--0-----2--4-(6)--|
 
1:42"
|--------------------|
|--4444444444444444--|
|--4444444444444444--|   Pre-Bridge
|--2222222222222222--|
|--------------------|

1:45"
|-----------------------------------2--------|
|--66--------------66---------3b4r3---3b4r3--|
|--66--66--44--22--66--66--44----------------|   Bridge
|--44--66--44--22--44--66--44----------------|
|------44--22--00------44--22----------------|
            
Hard to play? Try these video lessons and learn fast. | Correct




comments powered by Disqus
↑ Back to top | Tablatures and chords are parodies/interpretations of the original songs. You may use it for private study, scholarship, research or language learning purposes only