» » »

United Live, Take All Of Me Tabs (ver.1)

Artists:  A B C D E F G H I J K L M N O P Q R S T U V W X Y Z # 

Take All Of Me Tabs (ver.1)

United Live Tabs
Rating:
0/5 (0 votes)
Take All Of Me lessons Tabs too difficult? Try these video lessons and learn fast
                Take all of me of United Hillsong

Standard tuning

Chords used

A    x07650
Asus x07750
E    022100
Esus 022200
Bm7  x24232
F#m  x44300
D2   xx0230
C#m7 x46654

Intro

A   Asus   A   Asus   A   Asus   A   Asus

Verse 1
              A              Asus
You broke the night like the sun
              A          Asus        F#m      D2
And healed my heart with Your great love
    A                  Asus
Any trouble I couldn't bear
          A          Asus           Esus  E
You lifted me upon Your shoulders

Pre-chorus
                Bm7
Love that's stronger
              A    E
Love that covers sin
     D2                    Bm7
And takes the weight of the world

Chorus
        Asus A
I love You
 Asus    A             Esus E
All of my hope is in You
      Bm7              F#m
Jesus Christ take my life
            Esus E
Take all of me


(use delay for electric part during interlude and 2nd verse)

E|---9--------------|  twice before going to second verse
B|-----10--9h10p9---|
G|-9--------------9-|
   A        Asus

Verse 2 (chords same as verse 1)

You stand on mountain tops with me
With You I walk through the valleys
Your grace is all I rely on

E|---9---------------|
B|-----10--9h10p9----| x2
G|-9--------------9--|
D|-------------------|

E|---------------------|
B|---10--10--10--10----|
G|---------------------|
D|-11--11--11--11------|

E|---9---------------|
B|-----10--9h10p9----| x2
G|-9--------------9--|
D|-------------------|

E|--9-9-9-9----------------------|
B|-----------12-12-12-12-12------| (not the exact number, add delay for less
G|-9-9-9-9--9--9--9--9--9--9-----|  picking..and more sounding)
D|-------------------------------|

Fill before bridge (here add ur own technic..i mean hammer on..pull offs..etc) 

E|---------------------------------------|
B|-1515-14-141514------141414------------|
G|----------------16-14------16-1414-16--|  (You can always add more
D|---------------------------------------|   technique or effect as
A|---------------------------------------|   using a single string
e|---------------------------------------|   doesnt sound really good.
                                            Also! second guitar also
E|---------------------------------------|   plays a great part to fill
B|-141515-17-19b-14------15-14-12~-------|   the "emptiness"...)
G|------------------14h16----------------|
D|---------------------------------------|
A|---------------------------------------|
e|---------------------------------------|

Asus    A      Asus    A       E       Esus   E      Bm  Bm7

F#m             E

the amount of spaces kinda represents the number of beats)

Bridge

  Asus A   E       F#m          D2
I love You so, and I give up my heart to say
  A        C#m     F#m E  D2
I need You so, my everything

Piano then ..lots of guitar ..hmm to much guitar !!

E|----0--------------|
B|---0---------------|
G|--6------6-6-4-----|
D|-7-------------7-7-|
A|-------------------|
e|-------------------|

phew dont wanna tab everything ..that took me too long! 

P.S if u have any corrections..please make a comment..and also if u rate it low..post ur reason..thx
            

comments powered by Disqus
↑ Back to top | United Live Tabs for Take All Of Me. Lyrics for acoustic guitar and electric guitar. Tablatures and chords are parodies/interpretations of the original songs. You may use it for private study, scholarship, research or language learning purposes only