» » »

Point Of Difference Tabs (ver.1)

Artists:  A B C D E F G H I J K L M N O P Q R S T U V W X Y Z # 

Point Of Difference Tabs (ver.1)

United Live
Rating:
0/5 (0 votes)

Hard to play? Try these video lessons and learn fast.
                ---------------------------------------------------------------------------


song         : Point of Difference
artist       : Hillsong United
album        : All of the Above
track number : Track 1

This is a very nice song!
I would like to dedicate this to our band 'skyfruit'
and to Ms.Sheena Mariquit =]

just continue to..
praise Him with the strings! Psalm 150:4

Standard tuning
Gtr1. - uses a dotted 8 delay; classic distortion
Gtr2. - acoustic and clean tone

Legend:
. - delayed note
~ - ring
b - bend
r - release

Intro:

Gtr1.
e|----11.-11.-11.-11.-11.-11.-11.-11.|-11.-11.-11.-11.-11.-11.-11.-11.-----|
b|-----------------------------------|-------------------------------------|
g|-----------------------------------|-------------------------------------|
d|-----------------------------------|-------------------------------------|
a|-----------------------------------|-------------------------------------|
E|-----------------------------------|-------------------------------------|

e|----12.-12.-12.-12.-11.-11.-11.-11.|-9.-9.-9.-9.-11.-11.-11.-11.---------|
b|-----------------------------------|-------------------------------------|
g|-----------------------------------|-------------------------------------|
d|-----------------------------------|-------------------------------------|
a|-----------------------------------|-------------------------------------|
E|-----------------------------------|-------------------------------------|

Gtr2.
e|-----------------------------------|-------------------------------------|
b|-----------------------------------|-------------------------------------|
g|------4-------4--------4-------4---|-----4-------4-------4-------4-------|
d|----4---4---4---4----4---4---4---4-|---4---4---4---4---4---4---2---2-----|
a|-----------------------------------|-2-------2-------2-------4-----------|
E|--4-------4--------4-------4-------|-------------------------------------|

Verse 1:

Gtr1.
e|----11.-11.-11.-11.-11.-11.-11.-11.|-11.-11.-11.-11.-11.-11.-11.-11.-----|
b|-----------------------------------|-------------------------------------|
g|-----------------------------------|-------------------------------------|
d|-----------------------------------|-------------------------------------|
a|-----------------------------------|-------------------------------------|
E|-----------------------------------|-------------------------------------|

e|----12.-12.-12.-12.-11.-11.-11.-11.|-9.-9.-9.-9.-11.-11.-11.-11.---------|
b|-----------------------------------|-------------------------------------|
g|-----------------------------------|-------------------------------------|
d|-----------------------------------|-------------------------------------|
a|-----------------------------------|-------------------------------------|
E|-----------------------------------|-------------------------------------|

Gtr2.
e|-----------------------------------|-------------------------------------|
b|-----------------------------------|-------------------------------------|
g|------4-------4--------4-------4---|-----4-------4-------4-------4-------|
d|----4---4---4---4----4---4---4---4-|---4---4---4---4---4---4---4---4-----|
a|-----------------------------------|-2-------2-------2-------2-----------|
E|--4-------4--------4-------4-------|-------------------------------------|

Gtr1.
e|----11.-11.-11.-11.-11.-11.-11.-11.|-11.-11.-11.-11.-11.-11.-11.-11.-----|
b|-----------------------------------|-------------------------------------|
g|-----------------------------------|-------------------------------------|
d|-----------------------------------|-------------------------------------|
a|-----------------------------------|-------------------------------------|
E|-----------------------------------|-------------------------------------|

e|----12.-12.-12.-12.-11.-11.-11.-11.|-9.-9.-9.-9.-11.-11.-11.-11.---------|
b|-----------------------------------|-------------------------------------|
g|-----------------------------------|-------------------------------------|
d|-----------------------------------|-------------------------------------|
a|-----------------------------------|-------------------------------------|
E|-----------------------------------|-------------------------------------|

Gtr2.
e|-----------------------------------|-------------------------------------|
b|-----------------------------------|-------------------------------------|
g|------4-------4--------4-------4---|-----4-------4-------4-------4-------|
d|----2---2---2---2----4---4---4---4-|---4---4---4---4---4---4---4---4-----|
a|--4-------4------------------------|-------------------------------------|
E|-------------------4-------2-------|-0-------0-------0-------2-----------|

Pre Chorus:

Gtr1.
e|----11.-11.-11.-11.-11.-11.-11.-11.|-11.-11.-11.-11.-11.-11.-11.-11.-----|
b|-----------------------------------|-------------------------------------|
g|-----------------------------------|-------------------------------------|
d|-----------------------------------|-------------------------------------|
a|-----------------------------------|-------------------------------------|
E|-----------------------------------|-------------------------------------|

e|----12.-12.-12.-12.-11.-11.-11.-11.|-9.-9.-9.-9.-11.-11.-11.-11.---------|
b|-----------------------------------|-------------------------------------|
g|-----------------------------------|-------------------------------------|
d|-----------------------------------|-------------------------------------|
a|-----------------------------------|-------------------------------------|
E|-----------------------------------|-------------------------------------|

Gtr2.
e|-----------------------------------|-------------------------------------|
b|-----------------------------------|-------------------------------------|
g|------------4---------------4------|---------4-------------4-------------|
d|---------4-----4---------4-----4---|------4-----4-------4-----4----------|
a|-----------------------------------|-------------------------------------|
E|-----0---------------0-------------|--0-------------0--------------------|

Chorus:

Gtr1.
e|-----------------------------------|-------------------------------------|
b|-------12------12------12------12--|-------11-------11-------11-------11-|
g|----11------11------11------11-----|----11-------11-------11-------11----|
d|--9-------9-------9-------9--------|-11-------11-------11-------11-------|
a|-----------------------------------|-------------------------------------|
E|-----------------------------------|-------------------------------------|

Gtr2.
e|-----------------------------------|-------------------------------------|
b|-----------------------------------|-------------------------------------|
g|--------4------4--------4-------4--|-------4--------4--------4------4----|
d|-----4------4--------4-------4-----|----4--------4--------4------4-------|
a|--2-------2-------2-------2--------|-------------------------------------|
E|-----------------------------------|-2--------2--------2-------2---------|

Gtr1.
e|-----------------------------------|-------------------------------------|
b|-------12------12------12------12--|-----12-----12-----12-----12---------|
g|----11------11------11------11-----|---9------9------9------9------------|
d|-13------13------13------13--------|-9------9------9------9--------------|
a|-----------------------------------|-------------------------------------|
E|-----------------------------------|-------------------------------------|

Gtr2.
e|-----------------------------------|-------------------------------------|
b|-----------------------------------|-------------------------------------|
g|--------4------4-------4-------4---|-------4--------4--------4------4----|
d|-----4------4-------4-------4------|----4--------4--------4------4-------|
a|-----------------------------------|-------------------------------------|
E|--4------4-------4-------4---------|-0--------0--------0-------0---------|

Pre-Verse:

Gtr1.
e|-----------------------------------|-------------------------------------|
b|-----------------------------------|-------------------------------------|
g|--13-13-13-13-13-13-13-13-13-13-13-|-13b15r13-11-8-8-8-8-8-8-8-8-6-6-6---|
d|-----------------------------------|-------------------------------------|
a|-----------------------------------|-------------------------------------|
E|-----------------------------------|-------------------------------------|

Gtr2.
e|-----------------------------------|-------------------------------------|
b|--0--------------------------------|--0----------------------------------|
g|--8b9r8----------------------------|--8b9r8------------------------------|
d|-----------------------------------|-------------------------------------|
a|-----------------------------------|-------------------------------------|
E|-----------------------------------|-------------------------------------|

Verse:

Gtr1.
e|----11.-11.-11.-11.-11.-11.-11.-11.|-11.-11.-11.-11.-11.-11.-11.-11.-----|
b|-----------------------------------|-------------------------------------|
g|-----------------------------------|-------------------------------------|
d|-----------------------------------|-------------------------------------|
a|-----------------------------------|-------------------------------------|
E|-----------------------------------|-------------------------------------|

e|----12.-12.-12.-12.-11.-11.-11.-11.|-9.-9.-9.-9.-11.-11.-11.-11.---------|
b|-----------------------------------|-------------------------------------|
g|-----------------------------------|-------------------------------------|
d|-----------------------------------|-------------------------------------|
a|-----------------------------------|-------------------------------------|
E|-----------------------------------|-------------------------------------|

Gtr2.
e|-----------------------------------|-------------------------------------|
b|--0--------------------------------|--0----------------------------------|
g|--8b9r8----------------------------|--8b9r8------------------------------|
d|-----------------------------------|-------------------------------------|
a|-----------------------------------|-------------------------------------|
E|-----------------------------------|-------------------------------------|

Pre-Chorus:

Gtr1. and Gtr2.
e|----------------------|--------------------------------------------------|
b|----------------------|--------------------------------------------------|
g|---4~-4~-4~-4-4-------|---4~-4~-4~-4-4-----4-4-4-4-4-4-4-4---------------|
d|---2~-2~-2~-4-4--4-4--|---2~-2~-2~-4-4-4-4-4-4-4-4-4-4-4-4---------------|
a|---2~-2~-2~-2-2--4-4--|---2~-2~-2~-2-2-4-4-2-2-2-2-2-2-2-2---------------|
E|---0~-0~-0~------2-2--|---0~-0~-0~-----2-2-------------------------------|

Gtr1. and Gtr2.
e|----------------------|--------------------------------------------------|
b|----------------------|--------------------------------------------------|
g|---4~-4~-4~-4-4-------|---4~-4~-4~---------------------------------------|
d|---2~-2~-2~-4-4--4-4--|---2~-2~-2~-4-4-4-4-4-4-4-4-4-4-------------------|
a|---2~-2~-2~-2-2--4-4--|---2~-2~-2~-4-4-4-4-4-4-4-4-4-4-------------------|
E|---0~-0~-0~------2-2--|---0~-0~-0~-2-2-2-2-2-2-2-2-2-2-------------------|

Chorus:

Gtr1.
e|------------------------------|------------------------------------------|
b|----11-11-11-11-11-11-11-11---|---11-11-11-11-11-11-11-11----------------|
g|----10-10-10-10-10-10-10-10---|---11-11-11-11-11-11-11-11----------------|
d|----9--9--9--9--9--9--9--9----|---11-11-11-11-11-11-11-11----------------|
a|------------------------------|------------------------------------------|
E|------------------------------|------------------------------------------|

Gtr2.
e|------------------------------|------------------------------------------|
b|------------------------------|------------------------------------------|
g|---4--4--4--4--4--4--4--4-----|------------------------------------------|
d|---4--4--4--4--4--4--4--4-----|---4--4--4--4--4--4--4--4-----------------|
a|---2--2--2--2--2--2--2--2-----|---4--4--4--4--4--4--4--4-----------------|
E|------------------------------|---2--2--2--2--2--2--2--2-----------------|


Gtr1.
e|------------------------------|------------------------------------------|
b|----11-11-11-11-11-11-11-11---|---12-12-12-12-12-12-12-12----------------|
g|----10-10-10-10-10-10-10-10---|---9--9--9--9--9--9--9--9-----------------|
d|----13-13-13-13-13-13-13-13---|---9--9--9--9--9--9--9--9-----------------|
a|------------------------------|------------------------------------------|
E|------------------------------|------------------------------------------|

Gtr2.
e|------------------------------|------------------------------------------|
b|------------------------------|------------------------------------------|
g|------------------------------|---4--4--4--4--4--4--4--4-----------------|
d|---6--6--6--6--6--6--6--6-----|---2--2--2--2--2--2--2--2-----------------|
a|---6--6--6--6--6--6--6--6-----|---2--2--2--2--2--2--2--2-----------------|
E|---4--4--4--4--4--4--4--4-----|------------------------------------------|


Bridge:

Gtr1.
e|--------------------------------------|----------------------------------|
b|--12-12-12-12-12-12-11-11-11-11-11-11-|--4-4-4-4-4-4-4-4-7-7-7-7---------|
g|--------------------------------------|----------------------------------|
d|--9--9--9--9--9--9--8--8--8--8--8--8--|--1-1-1-1-1-1-1-1-4-4-4-4---------|
a|--------------------------------------|----------------------------------|
E|--------------------------------------|----------------------------------|

Gtr2.
e|--------------------------------------|----------------------------------|
b|--------------------------------------|----------------------------------|
g|--4--4--4--4--4--4--3--3--3--3--3--3--|--4-4-4-4-4-4-4-4-3-3-3-3---------|
d|--4--4--4--4--4--4--4--4--4--4--4--4--|--4-4-4-4-4-4-4-4-4-4-4-4---------|
a|--2--2--2--2--2--2--2--2--2--2--2--2--|--2-2-2-2-2-2-2-2-2-2-2-2---------|
E|--------------------------------------|----------------------------------|

Gtr1.
e|--------------------------------------|----------------------------------|
b|--12-12-12-12-12-12-12-12-12-12-12-12-|--5-5-5-5-5-5-5-5-5-5-5-5---------|
g|--------------------------------------|----------------------------------|
d|--9--9--9--9--9--9--9--9--9--9--9--9--|--2-2-2-2-2-2-2-2-2-2-2-2---------|
a|--------------------------------------|----------------------------------|
E|--------------------------------------|----------------------------------|

Gtr2.
e|--------------------------------------|----------------------------------|
b|--------------------------------------|----------------------------------|
g|--------------------------------------|--4-4-4-4-4-4-4-4-4-4-4-4---------|
d|--6--6--6--6--6--6--6--6--6--6--6--6--|--2-2-2-2-2-2-2-2-2-2-2-2---------|
a|--6--6--6--6--6--6--6--6--6--6--6--6--|--2-2-2-2-2-2-2-2-2-2-2-2---------|
E|--4--4--4--4--4--4--4--4--4--4--4--4--|----------------------------------|

Pre-Chorus:

Gtr1.and Gtr2.
e|----------------------|--------------------------------------------------|
b|----------------------|--------------------------------------------------|
g|---4~-4~-4~-4-4-------|---4~-4~-4~---------------------------------------|
d|---2~-2~-2~-4-4--4-4--|---2~-2~-2~-4-4-4-4-4-4-4-4-4-4-------------------|
a|---2~-2~-2~-2-2--4-4--|---2~-2~-2~-4-4-4-4-4-4-4-4-4-4-------------------|
E|---0~-0~-0~------2-2--|---0~-0~-0~-2-2-2-2-2-2-2-2-2-2-------------------|


Chorus:

Gtr1.
e|------------------------------|------------------------------------------|
b|----11-11-11-11-11-11-11-11---|---11-11-11-11-11-11-11-11----------------|
g|----10-10-10-10-10-10-10-10---|---11-11-11-11-11-11-11-11----------------|
d|----9--9--9--9--9--9--9--9----|---11-11-11-11-11-11-11-11----------------|
a|------------------------------|------------------------------------------|
E|------------------------------|------------------------------------------|

Gtr2.
e|------------------------------|------------------------------------------|
b|------------------------------|------------------------------------------|
g|---4--4--4--4--4--4--4--4-----|------------------------------------------|
d|---4--4--4--4--4--4--4--4-----|---4--4--4--4--4--4--4--4-----------------|
a|---2--2--2--2--2--2--2--2-----|---4--4--4--4--4--4--4--4-----------------|
E|------------------------------|---2--2--2--2--2--2--2--2-----------------|


Gtr1.
e|------------------------------|------------------------------------------|
b|----11-11-11-11-11-11-11-11---|---12-12-12-12-12-12-12-12----------------|
g|----10-10-10-10-10-10-10-10---|---9--9--9--9--9--9--9--9-----------------|
d|----13-13-13-13-13-13-13-13---|---9--9--9--9--9--9--9--9-----------------|
a|------------------------------|------------------------------------------|
E|------------------------------|------------------------------------------|

Gtr2.
e|------------------------------|------------------------------------------|
b|------------------------------|------------------------------------------|
g|------------------------------|---4--4--4--4--4--4--4--4-----------------|
d|---6--6--6--6--6--6--6--6-----|---2--2--2--2--2--2--2--2-----------------|
a|---6--6--6--6--6--6--6--6-----|---2--2--2--2--2--2--2--2-----------------|
E|---4--4--4--4--4--4--4--4-----|------------------------------------------|

Outro:

Gtr1.and Gtr2.
e|----------------------|----------------------|----------------------|----|
b|----------------------|----------------------|----------------------|----|
g|---4~-4~-4~-4-4-------|---4~-4~-4~-4-4-------|---4~-4~-4~-4-4-------|-4~-|
d|---2~-2~-2~-4-4--4-4--|---2~-2~-2~-4-4--4-4--|---2~-2~-2~-4-4--4-4--|-2~-|
a|---2~-2~-2~-2-2--4-4--|---2~-2~-2~-2-2--4-4--|---2~-2~-2~-2-2--4-4--|-2~-|
E|---0~-0~-0~------2-2--|---0~-0~-0~------2-2--|---0~-0~-0~------2-2--|-0~-|

Point of Difference

the tide is turning
this is redemptions hour
in the midst of a world lost for love
You are all we have now
the lost returning
salvation is all around
in the midst of the world broken down
You are all we have now
for You are God and this hope is ours
so Father open the skies
flood the earth with Your light
this is love
to break the world indifferent

our hearts are burning
a fire that won't burn out
in the midst of a world that's grown cold
You are all we have now
the earth resounding
the anthem of your reknown
as we lift up our eyes
and look to Your glory

call us out
let the world see
You are God
and this hope is ours
so call us out
let the world see
You are God, as we sing

so Father open the skies
flood the earth with Your light
this is love
to break the world indifferent
as we lift up our eyes
fill our hearts with Your fire
in a world of sin
we'll be different, the difference

our eyes are open
every chain now broken
in this world
we are different
let Your love become us
as we live to make You famous
in this world
we are different
so call us out
let the world see
You are God, as we sing

so call us out
let the world see
You are God
one and only
in this world
You are all we have now
            
Hard to play? Try these video lessons and learn fast. | Correct




comments powered by Disqus
↑ Back to top | Tablatures and chords are parodies/interpretations of the original songs. You may use it for private study, scholarship, research or language learning purposes only