» » »

United Live, My Redeemer Lives Bass tabs (ver.1)

Artists:  A B C D E F G H I J K L M N O P Q R S T U V W X Y Z # 

My Redeemer Lives Bass tabs (ver.1)

United Live Tabs
 Rating:
4.3/5 (6 votes)
My Redeemer Lives lessons Tabs too difficult? Try these video lessons and learn fast
                My Redeemer lives
kuya Richard's style
intro/verses:E-A
G|----------------------------|
D|-------9-9-7----------------|
A|---7-7--------0--4--5--6----|2x
E|----------------------------|

G|----------------------------------------------------------|
D|--------------------7-5-4-3-------------------------------|
A|-------7-5-4-3-0-0---------------7-5-4-3-0-0--------------|
E|---0-0-----------------------0-0---------------5(pause)---|


pre-chorus: B-A-E

G|-----------------------------|
D|-----------------------------|
A|---2----------2--------------|
E|--------5--------------------|

chorus:
G|----------------------------|
D|-------9-9-7----------------|2x
A|---7-7-----------4-2--------|
E|---------------5------------|


bridge:

G|----------------------------|
D|----------------------------|
A|---5---------------------2--|
E|--------5----0---2----0-----|

keeo it rock!!!
            
Submit corrections

comments powered by Disqus
↑ Back to top | United Live Bass for My Redeemer Lives. Lyrics for acoustic guitar and electric guitar. Tablatures and chords are parodies/interpretations of the original songs. You may use it for private study, scholarship, research or language learning purposes only