>
 >
My Future Decided

My Future Decided Guitar Tabs

United Live - My Future Decided chords, tabs, tablatures, lyrics

Guitar lessons | Add/correct | Request | Top 50 tabs Artists:  A B C D E F G H I J K L M N O P Q R S T U V W X Y Z 0-9

My Future Decided Guitar Tabs – United Live

CD, Sheet music, Poster

Do you like My Future Decided? Share with your friends now
Tabs
My Future Decided by United Live

kevs & thirdy try nio toh ah

intro: 4x
E---------------------------------------------------------------|
B----------6-------------6--------------------------------------|
G---6------6-(6x)-6------6-(2x)-7------6------------------------|
D---6-(2x)-4------6-(2x)-4------7-(2x)-6-(2x)--7--------9-------|
A---4-------------4-------------5------4-------7-(12x)--9-(5x)--|
E----------------------------------------------5--------7-------|

E------------------|ung last part nung intro slide lang un sa 17 fret...o_O
B------------------|tapos verse na.
G------------------|
D---7--------------|
A---7-(12x)--------|
E---5sssssssss17---|

Verse:       F#m-A-D-A-F#m
pre-chorus:  D-A-F#m-D-A-E
Chorus:      A-D-F#m-F#m(2x)
             D-A-E-E (2x)

verse1:
rhythm guitar: F#m-A-D-A-F#m
lead part
verse: let it ring
E------9--------9----------9---------9---------9---|
B-----------10---------10--------10--------10------|
G--11---11---------11--------11--------11----------|
D--------------------------------------------------|
A--------------------------------------------------|
E--------------------------------------------------|

E--------9--------9---------9-----------9----|
B-----10------10--------10---------10--------|
G---9------9--------9----------9-------------|
D--------------------------------------------|
A--------------------------------------------|
E--------------------------------------------|

E---10-------10---------10---9---------9---------9----|
B------10--------10-------------10--------10----------|
G---------9---------9---------------9----------9------|
D-----------------------------------------------------|
A-----------------------------------------------------|
E-----------------------------------------------------|

pre-chorus: D-A-F#m-D-A-E
mga tol picking lang...parang sa "time has come intro"

-----------------|----------------------------|
---10---10----19-|--9999--10101010-12121212---|
----9---10----9--|--9999---9-9-9-9--9-9-9-9---|
-----------------|----------------------------|
-----------------|----------------------------|(strum down..down...down)
-----------------|----------------------------|

Chorus:A-D-F#m-F#m(2x)
       D-A-E-E (2x)


E----------------------|----------------|-------------------------------|
B---10-----------------|----10----------|--9(4x)------------------------|
G----9-(strum)---------|-----9-(strum)--|--------9(4x)---------9(4x)----|
D----------------------|----------------|---------------11(4x)----------|
A----------------------|----------------|-------------------------------|
E----------------------|----------------|-------------------------------|
Jesus saviour in my life..i am ...i am   ....Yours

instrumental:

E-------------------17-16----14-----------------|
B--14s-17-17-17-17--------17-----101010121212---|
G---------------------------------9-9-9-9-9-9---|
D-----------------------------------------------|
A-----------------------------------------------|
E-----------------------------------------------|

E-------------------17-16----14---------------------|
B--14s-17-17-17-17--------17-----101010-9-9-9101010-|
G---------------------------------9-9-9-9-9-9-9-9-9-|
D---------------------------------------------------|
A---------------------------------------------------|
E---------------------------------------------------|

bridge:
pm - palm mute

    pm pm pm
E------------------------------------|
B---10-10-10---10-10-10--9--9-10-----|
G---11-11-11---11-11-11-11-11-11-----|
D------------------------------------|
A------------------------------------|
E------------------------------------|

    pm pm pm
E------------------------------------|
B---10-10-10---10-10-10--9--9-10-----|
G----9--9--9----9--9--9--9--9--9-----|
D------------------------------------|
A------------------------------------|
E------------------------------------|

chorus:

ending:

   E-----------------|
   B-----------------|
   G---9-------------|
   D---9-------------|
   A-----------------|
   E-----------------|
   ....yours





Comments


Popular United Live tabs & chords
From God Above Chords
Glory Of Your Name Chords
God Is Great Chords
Look To You 1 Chords
Till I See You 1 Chords
Desperate People 1 Tabs
Jesus You Are My Best Friend Ukulele
Living For You Ukulele
Look To You Ukulele
Rising Ukulele


Song lyrics



↑ Back to top | Tablatures and chords are parodies/interpretations of the original songs. You may use it for private study, scholarship, research or language learning purposes only
© 2014 AZChords.com Contact us | Privacy policy | DMCA | Add/correct tabs | Request tabs | Top 50 tabs