» » »

United Live, Lead Me To The Cross Bass tabs (ver.1)

Artists:  A B C D E F G H I J K L M N O P Q R S T U V W X Y Z # 

Lead Me To The Cross Bass tabs (ver.1)

United Live Tabs
 Rating:
4/5 (5 votes)
Lead Me To The Cross lessons Tabs too difficult? Try these video lessons and learn fast
                BREAK FREE
UNITED LIVE
ALL OF THE ABOVE {2007}

BASS GUITAR
if you have a question just add
Christ to The World church
jerico @ GOD`S ARMY

Start with electric
G)-----------------------------|
D)-----------------------------|
A)-2-2--2----------------5-5-4-|
E)-----2-------3-3--3---5------|
B)-----------------3-----------|

G)-------------------------------|
D)-------------------------------|
A)-2-2--2---0-0-----------5-5-4--|
E)-----2----------3-3--3---------|
B)--------------------3----------|

Verse:
G)----------------------------|
D)----------------------------|
A)-2-2--2---2-2---------------|
E)-----2----------5-5--5--5-5-|
B)--------------------5-------|(Play open E instead of 5)

G)----------------------------------|
D)--------------5--3----------------|
A)------------5------5-5--5--7--2-2-|
E)-3-3--3--3------------5-----------|
B)-----3----------------------------|

G)-----------------------------|
D)-----------------------------|
A)-2-2--2---2-2-----------5s12-|
E)-----2----------5-5--5-------|
B)--------------------5--------|(Play open E instead of 5)

G)-----------------------------------|
D)--------------5--------------------|
A)------------5------5-5--5---3-3--3-|
E)-3-3--3--3------------5---------5--|
B)-----3-----------------------------|

Pre-Chorus
G)--------------------------------------|
D)--------------------------------------|
A)-7-5--------0-0-0-0---------------s10-| (hold it)
E)-----7-3-0------------7--5--3-3-3-3---|
B)--------------------------------------|

Chorus (1)
G)-----------------------------|
D)-----------------------------|
A)------------5-5-5-5----------|
E)-3-3-3-5-7----------5-5-5-5--|
B)-----------------------------| x3

G)----------------------------------------|
D)----------------------------------------|
A)-7-5------------------------------------|
E)-----7-3-0-0-0-0--3-3-3-3-5-5-5-5-------|
B)--------------------------------------0-| (Play B on the E string)

Bridge (start on the 3rd) ..to your cross...
G)-------------------------------------------|
D)-------------------------------------------|
A)-17--10--12---5-5-5-5----------------------|
E)--------------------------3-3-3-3--5-5-5-5-|
B)-------------------------------------------|

Chorus (2)
G)----------------------------|
D)----------------------------|
A)----------5-5-5-------------|
E)-3-3-3-3--------7-5-5-5-5---|
B)----------------------------|x3
            
Submit corrections

comments powered by Disqus
↑ Back to top | United Live Bass for Lead Me To The Cross. Lyrics for acoustic guitar and electric guitar. Tablatures and chords are parodies/interpretations of the original songs. You may use it for private study, scholarship, research or language learning purposes only