» » »

Hosanna Tabs (ver.1)

Artists:  A B C D E F G H I J K L M N O P Q R S T U V W X Y Z # 

Hosanna Tabs (ver.1)

United Live
Rating:
5/5 (9 votes)

Hard to play? Try these video lessons and learn fast.
                This is from the upcoming album All of the above of hillsong united

Hosanna by Hillsong united

Intro (use delay for this one..i put mine on 500ms) with middle pickup

C#m E F#m G#m

E|-----4-------4------------------|
B|---5-----5h7---------4-------4--|
G|-6-----6-----------4-----4h6----|
D|-----------------6-----6--------|
A|--------------------------------|
e|--------------------------------|

E|--------------------------------|
B|-------5---5--------4--------4--|
G|-----6-------6----4------4h6----|
D|-6s7-----7------6------6--------|
A|--------------------------------|
e|--------------------------------|

E|-----4-------4-------------------|
B|---5-----5h7---------4-------4---|
G|-6-----6-----------4-----4h6-----|
D|-----------------6-----6---------|
A|---------------------------------|
e----------------------------------|

E|-----------7-------------9-------|
B-------5-----5------7------7------|
G|-----6------------8--------------|
D|-6s7-----7------9------9---------|
A|---------------------------------|
e|---------------------------------|

Verse 1
  E   C#m   F#m     B  
E|--------4------------------|
B|--9---5--------2--4----4---|
G|9---6--------2------4----4-|
D|-----------4----------4----|
A|---------------------------|
e|---------------------------|


E
i see the King of Glory
C#m
coming down the clouds with fire
F#m
the whole earth shakes
B
the whole earth shakes

Play this after the first verse and after every chorus

E|-----4-----4-----4-----7-----5--12-|
B|---5-----5-----5-----5-----5----12-|
G|-6-----6-----6-----6-----6---------|
D|-----------------------------------|
A|-----------------------------------|
e|-----------------------------------|


E
i see His love and mercy
C#m
washing over all our sin
F#m
the people saved
B
the people saved

Chorus

Play this on the first chorus only
Play chords on 2nd time with distortion

E|-----0-------0-------0-------0-----|
B|---0---0---0---0---0---0---0---0---|
G|-----------------------------------|
D|-----------------------------------|
A|---------0-------2-------4---------|
e|-4---------------------------------|

E|-----0-------0-------0-------0-----|
D|---0---0---0---0---0---0---0---0---|
G|-----------------------------------|
D|-----------------------------------|
A|-0-------4-------2-------2---------|
e|-----------------------------------|

E|-----0-------0-------0-------0-----|
B|---0---0---0---0---0---0---0---0---|
G|-----------------------------------|
D|-----------------------------------|
A|---------0-------2-------4---------|
e|-4---------------------------------|

E|-----0-------0---------------------|
B|---0---0---0---0-------------------|
G|-----------------------------------|
D|-----------------------------------|
A|-0-------2-------------------------|
e|-----------------------------------|

E/G# A
B C#m
A C#m B
Hosanna in the highest

Verse 2

E
i see a generation
C#m
rising up to take the place
F#m
with selfless faith
B
with selfless faith
   
   E         C#m   F#m    B
E|-12------------4-----------------|
B|----9--------5-------2--4----4---|
G|-------9---6-------2------4----4-|
D|-----------------4----------4----|
A|---------------------------------|
e|---------------------------------|


E
i see a near revival
C#m
staring as they pray and seek
F#m
we're on our knees
B
we're on our knees

Chorus x2


Solo (probably with an octave pedal from the album) 

C#m  E   F#m  G#m X2

E|-------------------------------------|
B|-12-12-12-12-12-9-7-9----------------|
G|-------------------------------------| X2
D|-------------------------------------|
A|-------------------------------------|
e|-------------------------------------|

E|--------------------------------------|
B|-10-10-10-10-10-9-7-5-4-4-4-4-5-5-7-7-|
G|--------------------------------------|
D|--------------------------------------|
A|--------------------------------------|
e|--------------------------------------|

E|--------------------------------------|
B|-12-12-12h14-12-12-9-7-9--------------|
G|--------------------------------------| X2
D|--------------------------------------|
A|--------------------------------------|
e|--------------------------------------|

E|-------11----11----11-12s14-14-14-14-14-14-14-14-|
B|-10-10----10----10-------------------------------|
G|-------------------------------------------------|
D|-------------------------------------------------|
A--------------------------------------------------|
e|-------------------------------------------------|

Bridge

A B
heal my heart and make it clean
E C#m
open up my eyes to the things i see
A B
show me how to love like You

C#m
have loved me
A B
break my heart for what breaks Yours
E C#m
everything i am for Your Kingdom's cause
A B
as i walk from earth and still eternity
            
Hard to play? Try these video lessons and learn fast. | Correct




comments powered by Disqus
↑ Back to top | Tablatures and chords are parodies/interpretations of the original songs. You may use it for private study, scholarship, research or language learning purposes only