» » »

United Live, From The Inside Out Tabs (ver.2)

Artists:  A B C D E F G H I J K L M N O P Q R S T U V W X Y Z # 

From The Inside Out Tabs (ver.2)

United Live Tabs
Rating:
4/5 (3 votes)
From The Inside Out lessons Tabs too difficult? Try these video lessons and learn fast
                
Intro
F--C-G

E|-------------12-------12-----10--------|
B|-------13----------13----13-----12-----|
G|-12h14----14----12-----------------12--|
D|---------------------------------------|
A|---------------------------------------|
e|---------------------------------------|

Solo
F C Am G
F Am G Dm

E|--8-8-8-8-8-88888---12121212-1313131313-121212--|
B|-1010101010-88888---13131313-1313131313-131313--|
G|------------------------------------------------|
D|------------------------------------------------|
A|------------------------------------------------|
e|------------------------------------------------|

E|-------------------------------------------------------|
B|---------------------------------------10------10------|
G|-17-16-14-141612--171614-1414-16--10-9----9--7----7----|
D|-------------------------------------------------------|
A|-------------------------------------------------------|
e|-------------------------------------------------------|

E|----------12--------1212-1010-1212-1515151515--|
B|------------13-10---1313-1313-1313-1717171717--|
G|-----------------------------------------------|
D|-b9h10-9~--------------------------------------|
A|-----------------------------------------------|
e|-----------------------------------------------|

E|-1212-1010-1212-1515151515------17--17--17--17--17--------|
B|-1313-1313-1313-1717171717-17-15--15--15--15--15--15s17---|
G|----------------------------------------------------------|
D|----------------------------------------------------------|
A|----------------------------------------------------------|
e|----------------------------------------------------------|

E|-----------------------------------|
B|-19~-------------------------------|
G|-----------------------------------|
D|-----------------------------------|
A|-----------------------------------|
e|-----------------------------------|

Ending (this is song is played on capo 5 ..so for the ending its easier
to play 0s instead of 5s..when u have capo..well cos i didnt want to tab
it relatively to capo.

E|----------------10-8-5------------|
B|-8-6-5-----------------8----------|
G|-------5-----------------5--------|
D|---------7-----------------9------|
A|-----------8s10--------------10s8-|
e|----------------------------------|
            

comments powered by Disqus
↑ Back to top | United Live Tabs for From The Inside Out. Lyrics for acoustic guitar and electric guitar. Tablatures and chords are parodies/interpretations of the original songs. You may use it for private study, scholarship, research or language learning purposes only