» » »

United Live, From God Above Tabs (ver.1)

Artists:  A B C D E F G H I J K L M N O P Q R S T U V W X Y Z # 

From God Above Tabs (ver.1)

United Live Tabs
 Rating:
4/5 (9 votes)
From God Above lessons Tabs too difficult? Try these video lessons and learn fast
1
                
Intro (solo)
------------------|
------------------|
------------------| (x3)
------------------|
-<3>-<3>-<3>-<3>--|
------------------|
*harmonic located on the 3rd fret

--------------------------|
--------------------------|
--------------------------|
-------------------<2.2>--|
-<2.2>-<2.2>-<2.2>--------|
--------------------------|
*harmonic located 1/5 the distance between the 2nd and 3rd frets

------------------|
------------------|
------------------| (x3)
------------------|
-<3>-<3>-<3>-<3>--|
------------------|

-----7h8------------------|
-7h8----------------------|
--------------------------|
--------------------------|
--------------------------|
--------------------------|

Intro (rhythm)
-------------------------------------------------|
-------------------------------------------------|
-9-9--5-5-------7-7--9-9--5-5--------------------|
-9-9--5-5--7-7--7-7--9-9--5-5--7-7-7-7-7-7-7-7---|
-7-7--3-3--7-7--5-5--7-7--3-3--7-7-7-7-7-7-7-7---|
-----------5-5-----------------5-5-5-5-5-5-5-5---|


Prechorus (solo)
---------------------------------7-------7-------7---10-8-7----|
-------------------------------8---8---8---8---8---8--------8--|
-7/9\7--7/9\7--7/9\7--7/9\7--9-------9-------9-----------------|
---------------------------------------------------------------|
---------------------------------------------------------------|
---------------------------------------------------------------|

---------------------------------7-------7-------7-------7-----|
-------------------------------8---8---8---8---8---8---9---8---|
-7/9\7--7/9\7--7/9\7--7/9\7--9-------9-------9-------9---------|
---------------------------------------------------------------|
---------------------------------------------------------------|
---------------------------------------------------------------|

Intro: Fm C# A#m D# Fm C# A#m
Prechorus: C# Fm G# C# Fm A#m
Chorus: G# D# Fm C# Fm D# Cm C#
Bridge: G# D# G# D# G#
            
Submit corrections

comments powered by Disqus
↑ Back to top | United Live Tabs for From God Above. Lyrics for acoustic guitar and electric guitar. 1 Tablatures and chords are parodies/interpretations of the original songs. You may use it for private study, scholarship, research or language learning purposes only