» » »

United Live, Fire Fall Down Tabs (ver.1)

Artists:  A B C D E F G H I J K L M N O P Q R S T U V W X Y Z # 

Fire Fall Down Tabs (ver.1)

United Live Tabs
Rating:
5/5 (4 votes)
Fire Fall Down lessons Tabs too difficult? Try these video lessons and learn fast
                (Intro)
-------------------------------------------------------------------------------
                             Fire Fall Down - United Live
-------------------------------------------------------------------------------

Tuning:EADGBe

This is my first tab. Did it coz I was gutted that no one had posted this KA guitaring 
the start of Fire Fall Down. You will need clean and delay. This isnt a particuly 
song but semi tough to master the timing with delay. Michael uses his dd5 delay to fill out the song.

Intro: Listen to the CD for Timing
e|-------------------------------------------------------------|
B|----------9--11---------14--12--------11-------9-------------|
G|------11------------------------------------------------11---|
D|--11---------------------------------------------------------|
A|-------------------------------------------------------------|
E|-------------------------------------------------------------|

Pause for the first line of the singing then come in second half with;
"cause i know that you're alive,you came to fix my broken life, and ill sing to glorify, 
holy name, Jesus Christ"
e|----------------------------------------------------------------------|
B|----------9--11---------14--12--------11-------9-------11/p9-11/p9----|
G|------11-----------------------------------------------------------11-|
D|--11------------------------------------------------------------------|
A|----------------------------------------------------------------------|
E|----------------------------------------------------------------------|

e|----------------------------------------------------------------------|
B|------------------------------------------11--------------------------|
G|------------------------------------------11--------------------------|
D|--11--9----------8/p6-8/p6-4----4/6-------11--------------------------|
A|----------------------------------------------------------------------|
E|----------------------------------------------------------------------|

Verse: Once again listen to the CD for timing but I have tabbed the fills
"You bought my life with the blood that you shed on the cross, when you died for the 
of men and you let out a cry, crucified now alive in me"
e|------------------|------------------|---------------------------------------------|
B|------14-----12---|--14--12/h14------|---------------------------------------------|
G|--11--------------|--------------11--|---------11------------------------6---------|
D|------------------|------------------|--11/h13-----13--11-----------6/h8-----8--4--|
A|------------------|------------------|---------------------------------------------|
E|------------------|------------------|---------------------------------------------|

"these hands are yours teach them to serve as you please, and ill reach out desperate to 
all the greatness of God, may my soul rest assured in you"
e|--------------|------------------|----------------------|
B|--14--11--12--|--14------11--12--|------------------11--|
G|--------------|------11----------|----------11/h13------|
D|--------------|------------------|--11/h13--------------|
A|--------------|------------------|----------------------|
E|--------------|------------------|----------------------|


Pre Chorus
"ill never be the same, no ill never be the same"
e|-------------------------------------------------------------|
B|--12--11/h12------14--12/h14----------------------12-----14--|
G|--------------------------------------11--11/h13-------------|
D|------------------------------11/h13-------------------------|
A|-------------------------------------------------------------|
E|-------------------------------------------------------------|

1st Chorus
"cause i know that you're alive, you came to fix my broken life, and ill sing to 
your holy name, Jesus Christ"
e|---------------------------------------------------------------------------------------------------|
B|--14----14----14----14----12----12----12----12----11----11----11----11----12----12----12----12-----|
G|-----11----11----11----11----11----11----11----11----11----11----11----11----11----11----11----11--|
D|---------------------------------------------------------------------------------------------------|
A|---------------------------------------------------------------------------------------------------|

X2


Verse 2: Starts with a massive F# chord
e|------------------------------------------------------|
B|--11--9--11-----------------11--9--11-----------------|
G|-------------11------11----------------11------11-----|
D|-----------------11------9-----------------11------9--|
A|------------------------------------------------------|
E|------------------------------------------------------|

"you changed it all, you broke..."
e|--------------------------------------------------------------------------------------------------------------|
B|--11--9--11-----------------11--9--11-----------------12--11--12------------------12--11--12------------------|
G|-------------11------11----------------11------11-----------------11------11------------------11------11------|
D|-----------------11------9-----------------11------9------------------11------11------------------11------11--|
A|--------------------------------------------------------------------------------------------------------------|
E|--------------------------------------------------------------------------------------------------------------|

"..."
e|-------------------------------------------------------------------------------------------------------------|
B|--------------------------11-------------------------11--11--9--11-----------------11--9--11-----------------|
G|--13--11--13--11------11------13--11--13--11-----11-----------------11------11----------------11------11-----|
D|------------------11-------------------------11-------------------------11------9-----------------11------9--|
A|-------------------------------------------------------------------------------------------------------------|
E|-------------------------------------------------------------------------------------------------------------|

Pre Chorus
"ill never be the same, no never be the same"
e|--------------14-------13------13--------------13---------------------14----13-13-13-13-13-13-13-13--|
B|--12--11/h12---------------14------11--12--14------14-----12--11/h12--------14-14-14-14-14-14-14-14--|
G|-----------------------------------------------------------------------------------------------------|
D|-----------------------------------------------------------------------------------------------------|
A|-----------------------------------------------------------------------------------------------------|
E|-----------------------------------------------------------------------------------------------------|

Chorus: Second Guitar Plays Chords - I cant hear Michael Playing anything legible. From 
its pretty much chords and inpromptu lead. You'll get it.


| /  slide up
| \  slide down
| h  hammer-on
| p  pull-off
| ~  vibrato
| +  harmonic
| x  Mute note
===============================================================================
            
Submit corrections

comments powered by Disqus
↑ Back to top | United Live Tabs for Fire Fall Down. Lyrics for acoustic guitar and electric guitar. Tablatures and chords are parodies/interpretations of the original songs. You may use it for private study, scholarship, research or language learning purposes only