» » »

United Live, All Day Tabs (ver.1)

Artists:  A B C D E F G H I J K L M N O P Q R S T U V W X Y Z # 

All Day Tabs (ver.1)

United Live Tabs
Rating:
4/5 (6 votes)
All Day lessons Tabs too difficult? Try these video lessons and learn fast
                Song : All Day
Band : United Live
Album : More than Life

Guitar tab standard tuning
lead for Intro :
         i love You....
e---------------------------------------------------------------------|
b--------7--9--7-----------------7--9--7------------------------------|
g-----------------8--6--8--6--8-----------8--6------------------------|
d---------------------------------------------------------------------|
a---------------------------------------------------------------------|
E---------------------------------------------------------------------|
         I'll read my bible and pray, i will follow You all day...
e---------------------------------------------------------------------|
b---------------------------------------------------------------------|
g--------8----9----9--8--9--8---6-----8--8----9--9--8---8---6---------|
d---------------------------------------------------------------------|
a---------------------------------------------------------------------|
E---------------------------------------------------------------------|

e--------7-7-6-6-7-7-----7-7-6-6-7-7-----7-7-6-6-7-7-----7-7-6-7--11^-|
b--------------------5-4-------------5-4-------------5-4--------------|
g---------------------------------------------------------------------|
d---------------------------------------------------------------------|
a---------------------------------------------------------------------|
E---------------------------------------------------------------------|

Chords used for this song:

        G#m     Em  / Em(2)    B       F#m     c#m
e--------x-------x-----x-------x--------x-------x---------------------|
b--------x-------x-----x-------x--------x-------x---------------------|
g--------x-------x-----9-------4--------x-------6---------------------|
d--------6-------2-----9-------4--------4-------6---------------------|
a--------6-------2-----7-------2--------4-------4---------------------|
E--------4-------0-----x-------x--------2-------x---------------------|

Intro:

G#m    Em      B      F#m

Verses:

G#m    Em      B      F#m

Pre-Chorus:

G#m    Em      B      F#m

Chorus:
All    day     all    day  now   all     day
B      Em(2)   B      F#m         B     Em(2)    G#m    Em

Bridge:

C#m      Em(2)


That's all for da guitar... sorry coz you will have to find the timing of the song 
Happy praising God.!


Intro Bass Tab :

g---------------1--------------------------------|
d-----------2-2---2-----1-2----------------------|    Repeat as neccesary..
a-------1-2---------2-2---------2-1--------------|
E---4-4---------------------2-2------------------|

I'm very sure of this bass tab...... once again happy playing and hope this tab helps..!
            

comments powered by Disqus
↑ Back to top | United Live Tabs for All Day. Lyrics for acoustic guitar and electric guitar. Tablatures and chords are parodies/interpretations of the original songs. You may use it for private study, scholarship, research or language learning purposes only