» » »

Adonai Tabs (ver.1)

Artists:  A B C D E F G H I J K L M N O P Q R S T U V W X Y Z # 

Adonai Tabs (ver.1)

United Live
Rating:
5/5 (4 votes)

Hard to play? Try these video lessons and learn fast.
                
intro:
e|----------------------|-14(3x)12(2x)11----12(3x)-11(2x)----------------------------------|
B|----------------------|----------------14---------------12----------11(2x)12(3x)14(2x)12-|
G|--------8--13---16----|------------------------------------13-13(3x)---------------------|
D|----6---x---x----x----|------------------------------------------------------------------|
A|----x---6--11---14----|------------------------------------------------------------------|
E|----4-----------------|------------------------------------------------------------------|

verse :
G#m          B
I lift my voice
               E
I lift my praise to You
             B
I lift my hands
                E      F#m
I lift my worship to You
G#m                B           E F#m 
And I love You more than I can say
G#m                B           E F#m 
Oh I love You more than I can say

chorus:
B           C#m     E             F#m
Ever I will sing only You will I adore
B           C#m     E             F#m 
Glorify my Lord only You will I serve
G#m                   F#m B E
For the world will fade away
G#m                   F#m B E
Still my song to You remains
       F#m
Only You will I adore

instrumental:
e|-14(3x)12(2x)11----12(3x)-11(2x)----------------------------------|
B|----------------14---------------12----------11(2x)12(3x)14(2x)12-|
G|------------------------------------13-13(3x)---------------------|
D|------------------------------------------------------------------|
A|------------------------------------------------------------------|
E|------------------------------------------------------------------|

bridge:
   B     E      F#  G#m
Oh I love You always
   B    E      F#  G#m
Oh I love You always
            
Hard to play? Try these video lessons and learn fast. | Correct




comments powered by Disqus
↑ Back to top | Tablatures and chords are parodies/interpretations of the original songs. You may use it for private study, scholarship, research or language learning purposes only