» » »

Turn Me On "Mr. Deadman" Tabs (ver.3)

Artists:  A B C D E F G H I J K L M N O P Q R S T U V W X Y Z # 

Turn Me On "Mr. Deadman" Tabs (ver.3)

Union Underground
Rating:
0/5 (0 votes)

Hard to play? Try these video lessons and learn fast.
                Band : Union Underground
Song : Turn Me On Mr Deadman
Tuning; Drop D

I am f**kin sick of seeing wrong tabs for this gr8 song so here u go...

x= mute string

Intro
 e--------------------------
 B--------------------------
 G---------------------^----
 D---------------------6---- X5 
 A-5-5-4-4-3-3-4-4-5-5-4----
 D-5-5-4-4-3-3-4-4-5-5------
pm[- - - - - - - - - -]^add a slight bend on last note

Play intro 3 more time or play below with another guitar play the intro 3 more times 
then go into the verse


After intro-- Use delay 
 e-------------
 B-------------
 G------6------
 D----5--------
 A--4----------
 D-------------

 Chorus

 e------------------------------------
 B------------------------------------
 G------------------------------------
 D--12/5--5-3-5--5-3-5-5-11-11-11-11--  \
 A--12/5--5-3-5--5-3-5-5-11-11-11-11--   \ 
 D--12/5--5-3-5--5-3-5-5-11-11-11-11--    \
					   \
 e----------------------------------       /  x2
 B----------------------------------      /
 G----------------------------------     /
 D-5--5-3-5--5-3-5-5--0-0-7-6-------    /
 A-5--5-3-5--5-3-5-5--0-0-7-6-------
 D-5--5-3-5--5-3-5-5--0-0-7-6-------

Only on the 1st time playing the verse do you play the slide from 12/5 on the 2nd 
time just play 
          D-5--5-3-5
	  A-5--5-3-5
          D-5--5-3-5

then back to intro/verse and play it X7

Back to Chorus

 e------------------------------------
 B------------------------------------
 G------------------------------------
 D--12/5--5-3-5--5-3-5-5-11-11-11-11--  \
 A--12/5--5-3-5--5-3-5-5-11-11-11-11--   \ 
 D--12/5--5-3-5--5-3-5-5-11-11-11-11--    \
					   \
 e----------------------------------       /  x2
 B----------------------------------      /
 G----------------------------------     /
 D-5--5-3-5--5-3-5-5--0-0-7-6--(5)--    /
 A-5--5-3-5--5-3-5-5--0-0-7-6--(5)--
 D-5--5-3-5--5-3-5-5--0-0-7-6--(5)--  let ring out (_)

Add some echo/delay and it sounds about right
 e-------------------------|----------------
 B-------------------------|----------------
 G-----6---------6---------|-6----6---6-----
 D-------5---------5----x4-|---5----5---5---
 A--4---------4------------|----------------
 D-------------------------|----------------

 e-------
 B-------
 G-------
 D-3-5-5- X8
 A-3-5-5-
 D-3-5-5-

With some wah and flanger not alot though
 e---------  
 B---------
 G---------
 D-5-5-xxxx
 A-5-5-xxxx
 D-5-5-xxxx
pm     ....
 e---------------------------------
 B---------------------------------
 G---------------------------------
 D--5--5-3-5--5-3-5-5-11-11-11-11--     \
 A--5--5-3-5--5-3-5-5-11-11-11-11--      \ 
 D--5--5-3-5--5-3-5-5-11-11-11-11--       \
					   \
 e----------------------------------       /  x4
 B----------------------------------      /
 G----------------------------------     /
 D-5--5-3-5--5-3-5-5--0-0-7-6-------    /
 A-5--5-3-5--5-3-5-5--0-0-7-6-------
 D-5--5-3-5--5-3-5-5--0-0-7-6-------

Outro - with wah heavyly heard on the pms

 e---------------         --------
 B---------------         --------
 G---------------	  --------
 D-5xxxx--------- X8	  ---3-3--  <-- End On
 A-5xxxx---------	  ---3-3--
 D-5xxxx---------	  ---3-3--
pm  ....

That is really easy.... Enjoy
            
Hard to play? Try these video lessons and learn fast. | Correct




comments powered by Disqus
↑ Back to top | Tablatures and chords are parodies/interpretations of the original songs. You may use it for private study, scholarship, research or language learning purposes only