» » »

Union Underground, Turn Me On "Mr. Deadman" Tabs (ver.2)

Artists:  A B C D E F G H I J K L M N O P Q R S T U V W X Y Z # 

Turn Me On "Mr. Deadman" Tabs (ver.2)

Union Underground Tabs
4/5 (4 votes)
Turn Me On  Tabs too difficult? Try these video lessons and learn fast
                Subject - u/union_underground/turn_me_on_mr._deadman
Artist - Union Underdround
Title - Turn me on Mr. Deadman

I am declaring this file all of my own work!!
An quality song with a superb chorus
Drop D tuning
Play with heavy distortion

x - scratch
: - let ring
pm - palm mute
\ - slide down
/ - slide up
b - bend
r - release

Intro + Verse

E -------------------------------
B -------------------------------
G -7-7-7-7-6-6-6-6-5-5-5-5-6-6-6:
D -5-5-5-5-4-4-4-4-3-3-3-3-4-4-4: x 9 (1 v. quiet at start)
A -5-5-5-5-4-4-4-4-3-3-3-3-4-4-4:
D -------------------------------
  <          palm mute       >


E ---------------------------------------------------
B --------------------------------------------------- x 2
G --------------------6-6-6--------------------------
D -5--5-3-5--5-3-5--5-6-6-6--5--5-3-5--5-3-5--0--6-4-  (You can put a
A -5--5-3-5--5-3-5--5-4-4-4--5--5-3-5--5-3-5--0--6-4-  slide in at the
D -5--5-3-5--5-3-5--5--------5--5-3-5--5-3-5--0--6-4-  start)

Play Verse x 7
Play Chorus x 2 (let 5 ring at end)


E ---------------------
B ---------------------
G --------------------- x4
D -3-5-5-5-3-5-5-5-3-5-
A -3-5-5-5-3-5-5-5-3-5-
D -3-5-5-5-3-5-5-5-3-5-

Play chorus x 4


E ----------------
B ----------------
G ----------------
D 5-x-x-x-5-x-x-x- x4
A 5-x-x-x-5-x-x-x-
D 5-x-x-x-5-x-x-x-


Submit corrections

comments powered by Disqus
↑ Back to top | Union Underground Tabs for Turn Me On "Mr. Deadman". Lyrics for acoustic guitar and electric guitar. Tablatures and chords are parodies/interpretations of the original songs. You may use it for private study, scholarship, research or language learning purposes only