» » »

Union Underground, South Texas Deathride Bass tabs (ver.1)

Artists:  A B C D E F G H I J K L M N O P Q R S T U V W X Y Z # 

South Texas Deathride Bass tabs (ver.1)

Union Underground Tabs
Rating:
0/5 (0 votes)
Hard to play? Try these video lessons and learn fast.
                Tuning:    Drop D Tuning

          
Intro/Chorus
          
G-------------------|
D-------------------|
A-----------1-------|
D-3-2-0-2----3--1-3-|
          
Verse
          
G|---------------------|
D|---------------------|
A|---------------------|
D|-0-2-0-2--0-2-0-2--5-|
          
Bridge
          
G-----------------------------------|
D-----------------------------------|
A-------------------------0-1-0-----|
D-0-2--0-2--0-2--0-2--0-2-------5-7-|

This is another brilliant song by union - i am not to 
sure about it tho so plz post ne corrections underneath 
            

comments powered by Disqus
↑ Back to top | Union Underground Bass for South Texas Deathride. Lyrics for acoustic guitar and electric guitar. Tablatures and chords are parodies/interpretations of the original songs. You may use it for private study, scholarship, research or language learning purposes only