» » »

Union Underground, Killing The Fly Tabs (ver.1)

Artists:  A B C D E F G H I J K L M N O P Q R S T U V W X Y Z # 

Killing The Fly Tabs (ver.1)

Union Underground Tabs
Rating:
5/5 (2 votes)
Killing The Fly lessons Tabs too difficult? Try these video lessons and learn fast
                Union Underground- Killing the Fly
Tuning: Drop D
Guitar 1 uses wah effect

Intro/Verse

Guitar 1

E------------------------------------------------------|
B------------------------------------------------------|
G------------------------------------------------------|
D-----------------------------------------4-4-4-2-2-2--|
A-------4-4-4-2-2-2------4-4-4-2-2-2--0-0--------------|
E--0-0---------------0-0-------------------------------|

E------------------------------------------------------|
B------------------------------------------------------|
G------------------------------------------------------|
D------4-------5---------------------------------------|
A----4-------5---5-------------------------------------|
E--2-----3-3-------------------------------------------|

Verse

Guitar 2

E------------------------------------------------------|
B---------4h5p4---------4h5p4---------1h2p1------------|
G------------------------------------------------------|
D--2---2---------2---2---------4---4-------------------|
A--2---2---------2---2---------4---4-------------------|
E--0---0---------0---0---------2---2-------------------|

E------------------------------------------------------|
B------------------------------------------------------|
G------------------------------------------------------|
D------4------5----------------------------------------|
A----4------5---5--------------------------------------|
E--2------3--------------------------------------------|

Bridge 1

Guitar 1

E------------------|      E----------------------------|
B------------------|      B----------------------------|
G------------------| x4   G--------------------4-------|
D------------------|      D--------2-0---4-2-----------|
A------4-4-4-2-2-2-|      A--4-2-----------------------|
E--0-0-------------|      E----------------------------|

Guitar 2                    

E--------|             E-------------|
B--------|             B-------------|
G--------| let it ring G-------------| repeat until chorus
D--2-----|             D--4-4-4-4----|
A--2-----|             A--4-4-4-4----|
E--0-----|                   E--2-2-2-2----|

Chorus

Guitar 1

E-------------------------------------|
B-----5--8--7--8\7-7------------------|
G--6--4--7--6--7\6-6------------------| x4
D--6--2--5--4--5\4-4------------------|
A--4----------------------------------|
E-------------------------------------|

Guitar 2 (listen to the song for strumming patterns)

E-------------------------------------|
B-------------------------------------|
G--6----------------------------------| x4
D--6--2--5-4--5\4-4-------------------|
A--4--2--5-4--5\4-4-------------------|
E-----0--3-2--3\2-2-------------------|

Verse

Chorus

Guitar 1

E-----------------|
B-----------------|
G--666666666\3----| x4
D-----------------|
A-----------------|
E-----------------|

Guitar 2- play chorus

Bridge 2

Guitar 1

E---------------------------------------------------------|
B-------------4-4p2---------------------4-4p2-------------|
G-------------------4-4-4p3-------------------4-4-4p3-----|
D---------------------------------------------------------|
A--0/2/6\5\4-----------------0/2/6\5\4--------------------|
E--0/2/6\5\4-----------------0/2/6\5\4--------------------|

E----------------------------------------------------------------|
B------------------------4-4p2---------------------4-4p2---------|
G------------------------------4-4-4p3-------------------4-4-4p3-|
D----------------------------------------------------------------|
A--0/2/6-0/2--0/2/6\5\4-----------------0/2/6\5\4----------------|
E--0/2/6-0/2--0/2/6\5\4-----------------0/2/6\5\4----------------|

E------------------------------------------------------------------|
B------------------------4-4p2---------------------4-4p2-----------|
G------------------------------4-4-4p3-------------------4-4-4p3---|
D------------------------------------------------------------------|
A--0/2/6-0/2/4--0/2/6\5\4-----------------0/2/6\5\4----------------|
E--0/2/6-0/2/4--0/2/6\5\4-----------------0/2/6\5\4----------------|

E--------------------|
B--------------------|
G--------------------|
D--------------------|
A--0/2/6-0/2/4-------|
E--0/2/6-0/2/4-------|

Guitar 2

E------------------|
B------------------|
G------------------| x6
D-------2--2-------|
A-------2--2-------|
E-------0--0-------|

Bridge 1

Guitar 1

E-------------|
B-------------|
G------2-4----|
D--2-4--------|
A-------------|
E-------------|

Chorus

Guitar 1

E----------------|
B----------------|
G--666666666\3---| x4
D----------------|
A----------------|
E----------------|

Guitar 2- Chorus
            

comments powered by Disqus
↑ Back to top | Union Underground Tabs for Killing The Fly. Lyrics for acoustic guitar and electric guitar. Tablatures and chords are parodies/interpretations of the original songs. You may use it for private study, scholarship, research or language learning purposes only