» » »

Un Muro Por Cruzar Bass tabs (ver.1)

Artists:  A B C D E F G H I J K L M N O P Q R S T U V W X Y Z # 

Un Muro Por Cruzar Bass tabs (ver.1)

Union 13
Rating:
0/5 (0 votes)

Hard to play? Try these video lessons and learn fast.
                UNION 13 - UN MURO POR CRUZAR
EAST LOS PRESENTS...:
TUNING: STANDARD E.A.D.G


INTRO: LET GUITAR DO IT X1 THEN COME IN 2ND TIME AND DO IT X1

G:|--------------------------------|
D:|--------------------------------|
A:|7-------3---------------5-------|
E:|----------------3---------------|


VERSE: X2

G:|------------------------------------------------------------------------|
D:|------------------------------------------------------------------------|
A:|7-777777-7-777777-3-333333-3-333333-------------------5-555555-5-555555-|
E:|------------------------------------3-333333-3-333333-------------------|

CHORUS: X2

G:|------------------------------------------------------------------------|
D:|------------------------------------------------------------------------|
A:|7-777777-7-777777-3-333333-3-333333-------------------5-555555-5-555555-|
E:|------------------------------------3-333333-3-333333-------------------|

VERSE: X2

G:|------------------------------------------------------------------------|
D:|------------------------------------------------------------------------|
A:|7-777777-7-777777-3-333333-3-333333-------------------5-555555-5-555555-|
E:|------------------------------------3-333333-3-333333-------------------|

CHORUS: X2

G:|------------------------------------------------------------------------|
D:|------------------------------------------------------------------------|
A:|7-777777-7-777777-3-333333-3-333333-------------------5-555555-5-555555-|
E:|------------------------------------3-333333-3-333333-------------------|

BRIDGE: X4

G:|-------------------------------7-5--|
D:|----------------------------------75|
A:|7-777777-3-3333333----------55------|
E:|-------------------3-333333---------|

CHORUS: X2

G:|------------------------------------------------------------------------|
D:|------------------------------------------------------------------------|
A:|7-777777-7-777777-3-333333-3-333333-------------------5-555555-5-555555-|
E:|------------------------------------3-333333-3-333333-------------------|

END: X2

G:|------------------------------------------------------------------------|
D:|------------------------------------------------------------------------|
A:|7-777777-7-777777-3-333333-3-333333-------------------5-555555-5-555555-|
E:|------------------------------------3-333333-3-333333-------------------|

END ON:

G:|-------|
D:|-------|
A:|7----7-|
E:|-------|


I DID, AND ITS USELESS AND WRONG, SO I HAVE CORRECTED IT, BUT FOR BASS. BEST SONG ON 
ALBUM!!!
            
Hard to play? Try these video lessons and learn fast. | Correct




comments powered by Disqus
↑ Back to top | Tablatures and chords are parodies/interpretations of the original songs. You may use it for private study, scholarship, research or language learning purposes only