» » »

Union 13, Innocence Tabs (ver.1)

Artists:  A B C D E F G H I J K L M N O P Q R S T U V W X Y Z # 

Innocence Tabs (ver.1)

Union 13 Tabs
 Rating:
4/5 (4 votes)
Innocence lessons Tabs too difficult? Try these video lessons and learn fast
1
                this is the song without the solo (which i'm working on)

intro (harmonics)
e-----------------------------------------|
b-----------------------------------------|
g-----------------------------------------|
d---5---5---5-5---5----5---5---5-5---5----|
a-----5---5-----5---5----5---5-----5---5--|
e-----------------------------------------|

main riff
e------------------------------------------|
b------------------------------------------|
g--------------------10-10-10-10--9-9-9-9--|
d---7-7-7-7-7-7-7-7--10-10-10-10--9-9-9-9--|
a---5-0-5-0-5-0-5-0--8--8--8--8---7-7-7-7--|
e------------------------------------------|

e----------------------------------------------|
b----------------------------------------------|
g--------------------12-12-12-12---10-10-10-10-|
d---7-7-7-7-7-7-7-7--12-12-12-12---10-10-10-10-|
a---5-0-5-0-5-0-5-0--10-10-10-10---8--8--8--8--|
e----------------------------------------------|

verse
e--------------------------------------------------------------|
b--------------------------------------------------------------|
g---7-7-7-7-----------------------7-7-7-7----------------------|
d---7-7-7-7--7--8-8-8-8-8-8-8-8---7-7-7-7--7--8-8-8-8-8-8-8-8--|  x2
a---5-5-5-5--7--8-8-8-8-8-8-8-8---5-5-5-5--7--8-8-8-8-8-8-8-8--|
e------------5--6-6-6-6-6-6-6-6------------5--6-6-6-6-6-6-6-6--|

pre-chorus
e-------------------------------------|
b-------------------------------------|
g---5-5-5-5-5-5-5-5--7-7-7-7-7-7-7-7--|
d---5-5-5-5-5-5-5-5--7-7-7-7-7-7-7-7--|   x2
a---3-3-3-3-3-3-3-3--5-5-5-5-5-5-5-5--|
e-------------------------------------|

bridge
e------------------------------------------------------------------|
b------------------------------------------------------------------|
g--------------------7-7-7-7-7-7----7-7----------------------------|
d---5---5---5---5----7-7-7-7-7-7----7-7----------------------------|
a-----5---5---5---5--5-5-5-5-5-5----5-5----------------------------|
e------------------------------------------------------------------|
   |---harmonics---------------------------------------------------|
e------------------------------------------------------------------|
b------------------------------------------------------------------|
g---7-7-7-7-7-7--10--9---------------10--9-------------7~-7~-7~----|
d---7-7-7-7-7-7--10--9--8-8-8-8-8-8--10--9--8-10-12----7~-7~-7~----|pick slide
a---5-5-5-5-5-5--8---7--8-8-8-8-8-8--8---7--8-10-12----5~-5~-5~----|
e-----------------------6-6-6-6-6-6---------6-8--10----------------|

play main riff then into solo (which i haven't finished yet)

stay proud, stay true, stay punk
            
Submit corrections

comments powered by Disqus
↑ Back to top | Union 13 Tabs for Innocence. Lyrics for acoustic guitar and electric guitar. 1 Tablatures and chords are parodies/interpretations of the original songs. You may use it for private study, scholarship, research or language learning purposes only