>
 >
Rakkautta Ja Piikkilankaa

Rakkautta Ja Piikkilankaa Guitar Tabs

Uniklubi - Rakkautta Ja Piikkilankaa chords, tabs, tablatures, lyrics

Guitar lessons | Add/correct | Request | Top 50 tabs Artists:  A B C D E F G H I J K L M N O P Q R S T U V W X Y Z 0-9

Rakkautta Ja Piikkilankaa Guitar Tabs – Uniklubi

CD, Sheet music, Poster

Do you like Rakkautta Ja Piikkilankaa? Share with your friends now
Bass TabsTabs
RAKKAUTTA JA PIIKKILANKAA


Gtr I (E A D G B E) - 'Untitled'
Gtr II (E A D G B E) - 'Untitled'

 Intro
  Q=170
  N.C.                            F5                 Dm/maj7+11
 4/4
  Gtr I
  Q  E Q  Q.     Q  Q  E Q.       Q   Q   E Q.       Q   Q   E Q.
|--------------|-0------------||-------------------|-------------------|
|-1----1-------|----1----1----||o-----1------------|-----1-------------|
|----4----4----|-------4------||----------4-2------|---------4-2-------|
|--------------|--------------||-------------------|-------------------|
|--------------|--------------||o------------------|-------------------|
|--------------|--------------||-------------------|-------------------|
|
|                                 Gtr II
| W              W                E E E E E E  E E   E E E E E E  E E
|--------------|--------------||-------------------|-------------------|
|--------------|--------------||o------------------|-------------------|
|--------------|--------------||-------------------|-------------------|
|--------------|--------------||-------------------|-7-7-7-7-7-7--7-7--|
|--------------|--------------||o-3-3-3-3-3-3--3-3-|-5-5-5-5-5-5--5-5--|
|--------------|--------------||--1-1-1-1-1-1--1-1-|-------------------|


  A5                G5                 F5                 D5
  Q   Q   E Q   E   Q   Q   E Q.       Q   Q   E Q.       Q   Q   E Q.
|-----------------|-0----------------|------------------|------------------|
|-----1-----1-----|-----1-----1------|-----1------------|-----1------------|
|---------4-----4-|---------4--------|---------4-2------|---------4-2------|
|-----------------|------------------|------------------|------------------|
|-----------------|------------------|------------------|------------------|
|-----------------|------------------|------------------|------------------|
|
| E E E E E E E E   E E E E E E  E E   E E E E E E  E E   E E E E E E  E E
|-----------------|------------------|------------------|------------------|
|-----------------|------------------|------------------|------------------|
|-----------------|------------------|------------------|------------------|
|-----------------|------------------|------------------|-7-7-7-7-7-7--7-7-|
|-7-7-7-7-7-7-7-7-|-5-5-5-5-5-5--5-5-|-3-3-3-3-3-3--3-3-|-5-5-5-5-5-5--5-5-|
|-5-5-5-5-5-5-5-5-|-3-3-3-3-3-3--3-3-|-1-1-1-1-1-1--1-1-|------------------|


  A5                G5                 F5                G5
  Q   Q   E Q   E   Q   Q   E Q.       W                 +H        E E E E
|-----------------|-0----------------|-----------------|-------------------|
|-----1-----1-----|-----1-----1------|-----------------|-------------------|
|---------4-----4-|---------4--------|-----------------|-------------------|
|-----------------|------------------|-----------------|-------------------|
|-----------------|------------------|-3---------------|-(3)-------2-3-----|
|-----------------|------------------|-5---------------|-(5)-----------3-5-|
|
| E E E E E E E E   E E E E E E  E E   E E E E E E E E    E  E E E E E E E
|-----------------|------------------|-----------------|-------------------|
|-----------------|------------------|-----------------|-------------------|
|-----------------|------------------|-----------------|-------------------|
|-----------------|------------------|-----------------|-------------------|
|-7-7-7-7-7-7-7-7-|-5-5-5-5-5-5--5-5-|-3-3-3-3-3-3-3-3-|--5--5-5-5-5-5-5-5-|
|-5-5-5-5-5-5-5-5-|-3-3-3-3-3-3--3-3-|-1-1-1-1-1-1-1-1-|--3--3-3-3-3-3-3-3-|


  A5
  +W                  +W
|-------------------|-------------------||
|-------------------|-------------------||
|-------------------|-------------------||
|-------------------|-------------------||
|-------------------|-------------------||
|-(5)---------------|-(5)---------------||
|
|  E  E E E E E E E    E  E E E E E E E
|-------------------|-------------------||
|-------------------|-------------------||
|-------------------|-------------------||
|-------------------|-------------------||
|--7--7-7-7-7-7-7-7-|--7--7-7-7-7-7-7-7-||
|--5--5-5-5-5-5-5-5-|--5--5-5-5-5-5-5-5-||


 Verse
  Q   E E +E  Q   E   +Q    Q   H
|-------------------|-------------------|
|-------------------|-------------------|
|-----------------0-|-(0)---------------|
|-------2-(2)-2-----|-------2-----------|
|-------------------|-------------------|
|-------------------|-------------------|
|
| E E E E  E  E E E    E  E E E E E E E
|-------------------|-------------------|
|-------------------|-------------------|
|-------------------|-------------------|
|-------------------|-------------------|
|-7-7-7-7--7--7-7-7-|--7--7-7-7-7-7-7-7-|
|-5-5-5-5--5--5-5-5-|--5--5-5-5-5-5-5-5-|


  F5                                      D5                  F5
  Q   E E +E  Q   E   +Q    Q   E E E E   E Q   E +Q    Q     E Q.     Q   E E
|-------------------|-------------------|-0-0---0-(0)-------|------------------|
|-------------------|-------------------|---------------3---|-1-1------1---0-0-|
|-----2-5-(5)-4---2-|-(2)---------2-2-2-|-------------------|------------------|
|-------------------|-------------------|-------------------|------------------|
|-------------------|-------------------|-------------------|------------------|
|-------------------|-------------------|-------------------|------------------|
|
| E E E E  E  E E E    E  E E E E E E E   E E E E  E  E E E   E E  E E E E E E
|-------------------|-------------------|-------------------|------------------|
|-------------------|-------------------|-------------------|------------------|
|-------------------|-------------------|-------------------|------------------|
|-------------------|-------------------|-7-7-7-7--7--7-7-7-|------------------|
|-3-3-3-3--3--3-3-3-|--3--3-3-3-3-3-3-3-|-5-5-5-5--5--5-5-5-|-3-3--3-3-3-3-3-3-|
|-1-1-1-1--1--1-1-1-|--1--1-1-1-1-1-1-1-|-------------------|-1-1--1-1-1-1-1-1-|


  A5
  +Q    Q   H         W                 E E E E +E  Q   E   +Q    Q   H
|-------------------|-----------------|-------------------|-------------------|
|-(0)---1-----------|-----------------|-------------------|-------------------|
|-------------------|-----------------|-----------------0-|-(0)---------------|
|-------------------|-----------------|---2-2-2-(2)-2-----|-------2-----------|
|-------------------|-----------------|-------------------|-------------------|
|-------------------|-----------------|-------------------|-------------------|
|
|  E  E E E E E E E   E E E E E E E E   E E E E  E  E E E    E  E E E E E E E
|-------------------|-----------------|-------------------|-------------------|
|-------------------|-----------------|-------------------|-------------------|
|-------------------|-----------------|-------------------|-------------------|
|-------------------|-----------------|-------------------|-------------------|
|--7--7-7-7-7-7-7-7-|-7-7-7-7-7-7-7-7-|-7-7-7-7--7--7-7-7-|--7--7-7-7-7-7-7-7-|
|--5--5-5-5-5-5-5-5-|-5-5-5-5-5-5-5-5-|-5-5-5-5--5--5-5-5-|--5--5-5-5-5-5-5-5-|


  F5                                      D5                   F5
  E E E E +E  Q   E   +H        E E E E   E Q   E +E  Q.       Q   Q   Q   E E
|-------------------|-------------------|-0-0---0-(0)--------|-----------------|
|---1-1-1-(1)-------|-------------------|-------------3------|-1---1---1---1---|
|-------------4---2-|-(2)---------2-2-2-|--------------------|---------------4-|
|-------------------|-------------------|--------------------|-----------------|
|-------------------|-------------------|--------------------|-----------------|
|-------------------|-------------------|--------------------|-----------------|
|
| E E E E  E  E E E    E  E E E E E E E   E E E E  E  E  E E   E E E E E E E E
|-------------------|-------------------|--------------------|-----------------|
|-------------------|-------------------|--------------------|-----------------|
|-------------------|-------------------|--------------------|-----------------|
|-------------------|-------------------|-7-7-7-7--7--7--7-7-|-----------------|
|-3-3-3-3--3--3-3-3-|--3--3-3-3-3-3-3-3-|-5-5-5-5--5--5--5-5-|-3-3-3-3-3-3-3-3-|
|-1-1-1-1--1--1-1-1-|--1--1-1-1-1-1-1-1-|--------------------|-1-1-1-1-1-1-1-1-|


  A5                    A5                C5                G5
  +E  E +H.             H       E E Q     W                 W
|---------------------|-----------------|-----------------|-1---------------|
|-----1-(1)-----------|-----------------|-1---------------|-----------------|
|-(4)-----------------|-----------4-4---|-----------------|-----------------|
|---------------------|-----------------|-----------------|-----------------|
|---------------------|-----------------|-----------------|-----------------|
|---------------------|-----------------|-----------------|-----------------|
|
|  E  E  E  E E E E E   E E E E E E E E   E E E E E E E E   E E E E E E E E
|---------------------|-----------------|-----------------|-----------------|
|---------------------|-----------------|-----------------|-----------------|
|---------------------|-----------------|-----------------|-----------------|
|---------------------|-----------------|-5-5-5-5-5-5-5-5-|-----------------|
|--7--7--7--7-7-7-7-7-|-7-7-7-7-7-7-7-7-|-3-3-3-3-3-3-3-3-|-5-5-5-5-5-5-5-5-|
|--5--5--5--5-5-5-5-5-|-5-5-5-5-5-5-5-5-|-----------------|-3-3-3-3-3-3-3-3-|


  A5                                    F5                  G5
  E E +H.             H       Q   Q     Q   E E +Q    Q     Q   E E +Q    Q
|-------------------|-----------------|-------------------|-------------------|
|---1-(1)-----------|-------------1---|-1---1-------------|-------------------|
|-4-----------------|-----------------|-------4-(4)---2---|-4---4-2-(2)---0---|
|-------------------|-----------------|-------------------|-------------------|
|-------------------|-----------------|-------------------|-------------------|
|-------------------|-----------------|-------------------|-------------------|
|
| E E  E  E E E E E   E E E E E E E E   E E E E  E  E E E   E E E E  E  E E E
|-------------------|-----------------|-------------------|-------------------|
|-------------------|-----------------|-------------------|-------------------|
|-------------------|-----------------|-------------------|-------------------|
|-------------------|-----------------|-------------------|-------------------|
|-7-7--7--7-7-7-7-7-|-7-7-7-7-7-7-7-7-|-3-3-3-3--3--3-3-3-|-5-5-5-5--5--5-5-5-|
|-5-5--5--5-5-5-5-5-|-5-5-5-5-5-5-5-5-|-1-1-1-1--1--1-1-1-|-3-3-3-3--3--3-3-3-|


                                      Chorus
  F5                G5      Bb5        A5
  W                 W                  H       H         H       Q   Q
|-----------------|-----------------||-3-------1-------|-----------------|
|-----------------|-----------------||-----------------|-5-------3---1---|
|-2---------------|-----------------||-----------------|-----------------|
|-----------------|-----------------||-----------------|-----------------|
|-----------------|-----------------||-----------------|-----------------|
|-----------------|-----------------||-----------------|-----------------|
|
| E E E E E E E E   E E E E E E E E    E E E E E E E E   E E E E E E E E
|-----------------|-----------------||-----------------|-----------------|
|-----------------|-----------------||-----------------|-----------------|
|-----------------|-----------------||-----------------|-----------------|
|-----------------|---------3-3-3-3-||-----------------|-----------------|
|-3-3-3-3-3-3-3-3-|-5-5-5-5-1-1-1-1-||-7-7-7-7-7-7-7-7-|-7-7-7-7-7-7-7-7-|
|-1-1-1-1-1-1-1-1-|-3-3-3-3---------||-5-5-5-5-5-5-5-5-|-5-5-5-5-5-5-5-5-|


  F5                                  C5
  H       H         H       Q   Q     H       H         Q   E E Q   E E
|-3-------1-------|-0---------------|-3-------1-------|-----------------|
|-----------------|---------3---1---|-----------------|-5-----5-3---1-3-|
|-----------------|-----------------|-----------------|-----------------|
|-----------------|-----------------|-----------------|-----------------|
|-----------------|-----------------|-----------------|-----------------|
|-----------------|-----------------|-----------------|-----------------|
|
| E E E E E E E E   E E E E E E E E   E E E E E E E E   E E E E E E E E
|-----------------|-----------------|-----------------|-----------------|
|-----------------|-----------------|-----------------|-----------------|
|-----------------|-----------------|-----------------|-----------------|
|-----------------|-----------------|-5-5-5-5-5-5-5-5-|-5-5-5-5-5-5-5-5-|
|-3-3-3-3-3-3-3-3-|-3-3-3-3-3-3-3-3-|-3-3-3-3-3-3-3-3-|-3-3-3-3-3-3-3-3-|
|-1-1-1-1-1-1-1-1-|-1-1-1-1-1-1-1-1-|-----------------|-----------------|


  G5                   D5                A5
  +Q    H.             W                 H       Q   Q     H       Q   Q
|--------------------|-----------------|-3-------1---1---|-----------------|
|-(3)---5------------|-----------------|-----------------|-5-------3---1---|
|--------------------|-----------------|-----------------|-----------------|
|--------------------|-----------------|-----------------|-----------------|
|--------------------|-----------------|-----------------|-----------------|
|--------------------|-----------------|-----------------|-----------------|
|
|  E  E E  E E E E E   E E E E E E E E   E E E E E E E E   E E E E E E E E
|--------------------|-----------------|-----------------|-----------------|
|--------------------|-----------------|-----------------|-----------------|
|--------------------|-----------------|-----------------|-----------------|
|--------------------|-7-7-7-7-7-7-7-7-|-----------------|-----------------|
|--5--5-5--5-5-5-5-5-|-5-5-5-5-5-5-5-5-|-7-7-7-7-7-7-7-7-|-7-7-7-7-7-7-7-7-|
|--3--3-3--3-3-3-3-3-|-----------------|-5-5-5-5-5-5-5-5-|-5-5-5-5-5-5-5-5-|


  F5                                  C5
  H       Q   Q     H       Q   Q     H       H         H       H
|-3-------1---1---|-0---------------|-3-------1-------|-0---------------|
|-----------------|---------3---1---|-----------------|---------1-------|
|-----------------|-----------------|-----------------|-----------------|
|-----------------|-----------------|-----------------|-----------------|
|-----------------|-----------------|-----------------|-----------------|
|-----------------|-----------------|-----------------|-----------------|
|
| E E E E E E E E   E E E E E E E E   E E E E E E E E   E E E E E E E E
|-----------------|-----------------|-----------------|-----------------|
|-----------------|-----------------|-----------------|-----------------|
|-----------------|-----------------|-----------------|-----------------|
|-----------------|-----------------|-5-5-5-5-5-5-5-5-|-5-5-5-5-5-5-5-5-|
|-3-3-3-3-3-3-3-3-|-3-3-3-3-3-3-3-3-|-3-3-3-3-3-3-3-3-|-3-3-3-3-3-3-3-3-|
|-1-1-1-1-1-1-1-1-|-1-1-1-1-1-1-1-1-|-----------------|-----------------|


                                       Guitar solo/Bridge
                    1.                  2.
  G5                D5                                     F5
  H       H         H       H           H       H          E E E E E E E E
|-----------------|-1----------------||-1---------------||-----------------|
|-3-------5-------|---------5-------o||---------5-------||---------5-------|
|-----------------|------------------||-----------------||-0-2-5-7---7-7-5-|
|-----------------|------------------||-----------------||-----------------|
|-----------------|-----------------o||-----------------||-----------------|
|-----------------|------------------||-----------------||-----------------|
|
| E E E E E E E E   E E E E E E E E     E E E E E E E E    E E E E E E E E
|-----------------|------------------||-----------------||-----------------|
|-----------------|-----------------o||-----------------||-----------------|
|-----------------|------------------||-----------------||-----------------|
|-----------------|-7-7-7-7-7-7-7-7--||-7-7-7-7-7-7-7-7-||-----------------|
|-5-5-5-5-5-5-5-5-|-5-5-5-5-5-5-5-5-o||-5-5-5-5-5-5-5-5-||-3-3-3-3-3-3-3-3-|
|-3-3-3-3-3-3-3-3-|------------------||-----------------||-1-1-1-1-1-1-1-1-|


  D5                A5                G5                 D5
  E E E E Q   Q     Q   Q   E Q   E   Q   Q   E Q.       E E E E E E E E
|-----------------|-----------------|------------------|-----------------|
|-----------------|-----------------|-5---1-----1------|-----5---3-------|
|-5-5-5-2-2-------|-----5---4-5---4-|---------4--------|-2-2---2---2-5-0-|
|-----------------|-----------------|------------------|-----------------|
|-----------------|-----------------|------------------|-----------------|
|-----------------|-----------------|------------------|-----------------|
|
| E E E E E E E E   E E E E E E E E   E E E E E E  E E   E E E E E E E E
|-----------------|-----------------|------------------|-----------------|
|-----------------|-----------------|------------------|-----------------|
|-----------------|-----------------|------------------|-----------------|
|-7-7-7-7-7-7-7-7-|-----------------|------------------|-7-7-7-7-7-7-7-7-|
|-5-5-5-5-5-5-5-5-|-7-7-7-7-7-7-7-7-|-5-5-5-5-5-5--5-5-|-5-5-5-5-5-5-5-5-|
|-----------------|-5-5-5-5-5-5-5-5-|-3-3-3-3-3-3--3-3-|-----------------|


  A5                C5                 F5                D5
  Q   Q   E Q   E   Q   Q   E Q.       W                 W
|-----------------|------------------|-----------------|-----------------|
|-----------1-----|-5----------------|-----------------|-----------------|
|-----5---4-----4-|-----5---4-5------|-----------------|-----------------|
|-----------------|------------------|-----------------|-----------------|
|-----------------|------------------|-----------------|-----------------|
|-----------------|------------------|-----------------|-----------------|
|
| E E E E E E E E   E E E E E E  E E   E E E E E E E E   E E E E E E E E
|-----------------|------------------|-----------------|-----------------|
|-----------------|------------------|-----------------|-----------------|
|-----------------|------------------|-----------------|-----------------|
|-----------------|-5-5-5-5-5-5--5-5-|-----------------|-7-7-7-7-7-7-7-7-|
|-7-7-7-7-7-7-7-7-|-3-3-3-3-3-3--3-3-|-3-3-3-3-3-3-3-3-|-5-5-5-5-5-5-5-5-|
|-5-5-5-5-5-5-5-5-|------------------|-1-1-1-1-1-1-1-1-|-----------------|


  A5                G5                 F5                 D5
  Q   Q   E Q   E   Q   Q   E Q.       Q   Q   E Q.       Q   Q   E Q.
|-----------------|------------------|------------------|------------------|
|-----1-----1-----|-5---1-----1------|-----1------------|-----1------------|
|---------4-----4-|---------4--------|---------4-2------|---------4-2------|
|-----------------|------------------|------------------|------------------|
|-----------------|------------------|------------------|------------------|
|-----------------|------------------|------------------|------------------|
|
| E E E E E E E E   E E E E E E  E E   E E E E E E  E E   E E E E E E  E E
|-----------------|------------------|------------------|------------------|
|-----------------|------------------|------------------|------------------|
|-----------------|------------------|------------------|------------------|
|-----------------|------------------|------------------|-7-7-7-7-7-7--7-7-|
|-7-7-7-7-7-7-7-7-|-5-5-5-5-5-5--5-5-|-3-3-3-3-3-3--3-3-|-5-5-5-5-5-5--5-5-|
|-5-5-5-5-5-5-5-5-|-3-3-3-3-3-3--3-3-|-1-1-1-1-1-1--1-1-|------------------|


  A5                G5                 C5                G5
  Q   Q   E Q   E   E E Q   Q   E E    W                 W
|-----8---7-8---7-|-8-7-8---7-------||-----------------|-3---------------|
|-----------------|-----------------||-1---------------|-----------------|
|-----------------|-------------4-4-||-----------------|-----------------|
|-----------------|-----------------||-----------------|-----------------|
|-----------------|-----------------||-----------------|-----------------|
|-----------------|-----------------||-----------------|-----------------|
|
| E E E E E E E E   E E E E E E E E    E E E E E E E E   E E E E E E E E
|-----------------|-----------------||-----------------|-----------------|
|-----------------|-----------------||-----------------|-----------------|
|-----------------|-----------------||-----------------|-----------------|
|-----------------|-----------------||-5-5-5-5-5-5-5-5-|-----------------|
|-7-7-7-7-7-7-7-7-|-5-5-5-5-5-5-5-5-||-3-3-3-3-3-3-3-3-|-5-5-5-5-5-5-5-5-|
|-5-5-5-5-5-5-5-5-|-3-3-3-3-3-3-3-3-||-----------------|-3-3-3-3-3-3-3-3-|


  A5                                    F5                   G5
  E E +H.             H       Q   Q     Q   E E +E  Q.       Q   E E +E  E Q
|-------------------|-----------------|--------------------|-3-----------------|
|-------------------|-------------5---|-5---5-3-(3)-1------|-----5-3-(3)-1-0---|
|-4-5-(5)-----------|-----------------|--------------------|-------------------|
|-------------------|-----------------|--------------------|-------------------|
|-------------------|-----------------|--------------------|-------------------|
|-------------------|-----------------|--------------------|-------------------|
|
| E E  E  E E E E E   E E E E E E E E   E E E E  E  E  E E   E E E E  E  E E E
|-------------------|-----------------|--------------------|-------------------|
|-------------------|-----------------|--------------------|-------------------|
|-------------------|-----------------|--------------------|-------------------|
|-------------------|-----------------|--------------------|-------------------|
|-7-7--7--7-7-7-7-7-|-7-7-7-7-7-7-7-7-|-3-3-3-3--3--3--3-3-|-5-5-5-5--5--5-5-5-|
|-5-5--5--5-5-5-5-5-|-5-5-5-5-5-5-5-5-|-1-1-1-1--1--1--1-1-|-3-3-3-3--3--3-3-3-|


  F5                G5                D5                  F5
  W                 W                 H       H           +Q    Q   E Q.
|-----------------|-----------------|-1---------------||---------------------|
|-5---------------|-----------------|---------5-------||o-(5)----------------|
|-----------------|-----------------|-----------------||--------5---4-2------|
|-----------------|-----------------|-----------------||---------------------|
|-----------------|-----------------|-----------------||o--------------------|
|-----------------|-----------------|-----------------||---------------------|
|
| E E E E E E E E   E E E E E E E E   E E E E E E E E      E  E E E E E  E E
|-----------------|-----------------|-----------------||---------------------|
|-----------------|-----------------|-----------------||o--------------------|
|-----------------|-----------------|-----------------||---------------------|
|-----------------|-----------------|-7-7-7-7-7-7-7-7-||---------------------|
|-3-3-3-3-3-3-3-3-|-5-5-5-5-5-5-5-5-|-5-5-5-5-5-5-5-5-||o--3--3-3-3-3-3--3-3-|
|-1-1-1-1-1-1-1-1-|-3-3-3-3-3-3-3-3-|-----------------||---1--1-1-1-1-1--1-1-|


  D5                 A5                G5                 F5
  Q   Q   E Q.       Q   Q   E Q   E   Q   Q   E Q.       Q   Q   E Q.
|------------------|-----------------|------------------|------------------|
|-----1---0--------|-----1---0-1---0-|-5---1---0-1------|-----1---0--------|
|-----------2------|-----------------|------------------|-----------2------|
|------------------|-----------------|------------------|------------------|
|------------------|-----------------|------------------|------------------|
|------------------|-----------------|------------------|------------------|
|
| E E E E E E  E E   E E E E E E E E   E E E E E E  E E   E E E E E E  E E
|------------------|-----------------|------------------|------------------|
|------------------|-----------------|------------------|------------------|
|------------------|-----------------|------------------|------------------|
|-7-7-7-7-7-7--7-7-|-----------------|------------------|------------------|
|-5-5-5-5-5-5--5-5-|-7-7-7-7-7-7-7-7-|-5-5-5-5-5-5--5-5-|-3-3-3-3-3-3--3-3-|
|------------------|-5-5-5-5-5-5-5-5-|-3-3-3-3-3-3--3-3-|-1-1-1-1-1-1--1-1-|


                                                           Outro
                     1.
  D5                 A5                G5                   A5
  Q   Q   E Q.       Q   Q   E Q   E   Q   Q   E Q.         Q   Q   E Q   E
|------------------|-----------------|-------------------||-----------------|
|-----1---0--------|-----1---0-1---0-|-5---1---0-1------o||-----1---0-1---1-|
|-----------2------|-----------------|-------------------||-----------------|
|------------------|-----------------|-------------------||-----------------|
|------------------|-----------------|------------------o||-----------------|
|------------------|-----------------|-------------------||-----------------|
|
| E E E E E E  E E   E E E E E E E E   E E E E E E  E E     E E E E E E E E
|------------------|-----------------|-------------------||-----------------|
|------------------|-----------------|------------------o||-----------------|
|------------------|-----------------|-------------------||-----------------|
|-7-7-7-7-7-7--7-7-|-----------------|-------------------||-----------------|
|-5-5-5-5-5-5--5-5-|-7-7-7-7-7-7-7-7-|-5-5-5-5-5-5--5-5-o||-7-7-7-7-7-7-7-7-|
|------------------|-5-5-5-5-5-5-5-5-|-3-3-3-3-3-3--3-3--||-5-5-5-5-5-5-5-5-|


  2.
  A5
  Q   Q   E Q.       W          W          W
|------------------|----------|----------|------|
|-5---1---0-1------|----------|----------|------|
|------------------|----------|----------|------|
|------------------|----------|----------|------|
|------------------|----------|----------|------|
|------------------|----------|----------|------|
|
| E E E E E E  E E   W          W          W
|------------------|----------|----------|------|
|------------------|----------|----------|------|
|------------------|----------|----------|------|
|------------------|----------|----------|------|
|-7-7-7-7-7-7--7-7-|----------|----------|------|
|-5-5-5-5-5-5--5-5-|----------|----------|------|





Comments


Popular Uniklubi tabs & chords
Kaikki Mitä Mä Annoin Chords
Luotisade Chords
Tuhka Chords
Kukka Tabs
Rakkaudesta Hulluuteen Tabs
Totta Vai Tarua Acoustic Intro Tabs
Huomenna Ukulele
Totta Vai Tarua Ukulele
Tuhka Ukulele
Varjoon Juuttunut Ukulele


Song lyrics



↑ Back to top | Tablatures and chords are parodies/interpretations of the original songs. You may use it for private study, scholarship, research or language learning purposes only
© 2014 AZChords.com Contact us | Privacy policy | DMCA | Add/correct tabs | Request tabs | Top 50 tabs