>
 >
Kylmaa

Kylmaa Guitar Tabs

Uniklubi - Kylmaa chords, tabs, tablatures, lyrics

Guitar lessons | Add/correct | Request | Top 50 tabs Artists:  A B C D E F G H I J K L M N O P Q R S T U V W X Y Z 0-9

Kylmaa Guitar Tabs – Uniklubi

CD, Sheet music, Poster

Do you like Kylmaa? Share with your friends now
Tabs
Uniklubi - KYLMÄÄ
*****************
Tuning: Standard (EADGBE)

E|-------------------------------------------------------------|
B|-------------------------------------------------------------|
G|44444444-------------------99999999-44444444-----------------|
D|44444444-44444444-66666666-99999999-44444444-44444444--2~~---|
A|22222222-44444444-66666666-77777777-22222222-44444444--2~~---|
E|---------22222222-44444444-------------------22222222--0~~---|

Verse [0:32]: 
- - - - - - - - - - - - - - P.M. - - - - - - - - - - - -
E|------------------------------------------------------|------------|
B|------------------------------------------------------|------------|
G|------------------------------------------------------|------------|
D|-44444444-------------------99999999-44444444---------|--2----2----|
A|-22222222-44444444-66666666-77777777-22222222-44444444|--2----2----|
E|----------22222222-44444444-------------------22222222|--0----0----|

Prechorus [0:45]:
E|-------------------------------------------------------------|
B|-------------------------------------------------------------|
G|-----------9999988444444666---------------99999999-----------|
D|-66-66-----9999988444444666----66-66------99999999444444444--|
A|-66-66-----7777766222222444----66-66------77777777444444444--|
E|-44-44-------------------------44-44--------------222222222--|

Chorus [1:00]:
E|--------------------------------------
B|--------------------------------------
G|-44444444-------------------99999999--
D|-44444444-44444444-66666666-99999999--
A|-22222222-44444444-66666666-77777777--
E|----------22222222-44444444-----------

E|-------------------------------------|
B|-------------------------------------|
G|-44444444-------------------99999999-|
D|-44444444-44444444-66666666-99999999-|
A|-22222222-44444444-66666666-77777777-|
E|----------22222222-44444444----------|

E|----------------------------------------------------------------|
B|----------------------------------------------------------------|
G|----------------------------------------------------------------|
D|-66666666-44444444-22222222-44444444-66666666-44444444--2--2~~--|
A|-66666666-44444444-22222222-44444444-66666666-44444444--2--2~~--|
E|-44444444-22222222-00000000-22222222-44444444-22222222--0--0~~--|


Verse 2 [1:34]:
- - - - - - - - - - - - - - P.M. - - - - - - - - - - - - - - - - - 
E|----------------------------------------------------------------|
B|----------------------------------------------------------------|
G|----------------------------------------------------------------|
D|-44444444-------------------99999999-44444444-------------------|
A|-22222222-44444444-66666666-77777777-22222222-44444444-22222222-|
E|----------22222222-44444444-------------------22222222-00000000-|


E|-----------------------------------------------------------|
B|-----------------------------------------------------------|
G|-4--------------------------9--------4---------------------|
D|-4--------4--------6--------9--------4--------4--------2~~-|
A|-2--------4--------6--------7--------2--------4--------2~~-|
E|----------2--------4--------------------------2--------0~~-|

Solo [2:03]:
E|-----------------------------------------------------------|
B|-----------------------------------------------------------|
G|------------------6-6--6/8-8984----------8-8-98-4-3-34-1---|
D|-------4-4--4h6p4---------------444/9/11-----------------4-|
A|-2h4p2-----------------------------------------------------|
E|-----------------------------------------------------------|

During the solo (Guitar2):
E|------------------------------------|
B|------------------------------------|
G|-4--------------9----4--------------|
D|-4----4----6----9----4---4---2~~----|
A|-2----4----6----7----2---4---2~~----|
E|------2----4-------------2---0~~----|

Prechorus [2:17]:
E|-------------------------------------------------------------|
B|-------------------------------------------------------------|
G|-----------9999988444444666---------------99999999-----------|
D|-66-66-----9999988444444666----66-66------99999999444444444--|
A|-66-66-----7777766222222444----66-66------77777777444444444--|
E|-44-44-------------------------44-44--------------222222222--|

Chorus [2:32]:
 - - - - - - - - - - - P.M. - - - - - - - - 
E|-----------------------------------------|
B|-----------------------------------------|
G|-4--------------9----4--------------9----|
D|-4----4----6----9----4----4----6----9----|
A|-2----4----6----7----2----4----6----7----|
E|------2----4--------------2----4---------|

 - - - - - - - - - - - P.M. - - - - - - - - - - - - - - -  
E|--------------------------------------------------------|-----|
B|--------------------------------------------------------|-----|
G|--------------------------------------------------------|-----|
D|-66666666-44444444-22222222-44444444-66666666--44444444-|-2~~-|
A|-66666666-44444444-22222222-44444444-66666666--44444444-|-2~~-|
E|-44444444-22222222-00000000-22222222-44444444--22222222-|-0~~-|

About 3:03
E|----------|
B|----------|
G|----------|
D|-66-66-66-|
A|-66-66-66-|
E|-44-44-44-|

Chorus [3:06]
E|--------------------------------------
B|--------------------------------------
G|-44444444-------------------99999999--
D|-44444444-44444444-66666666-99999999--
A|-22222222-44444444-66666666-77777777--
E|----------22222222-44444444-----------

E|-------------------------------------|
B|-------------------------------------|
G|-44444444-------------------99999999-|
D|-44444444-44444444-66666666-99999999-|
A|-22222222-44444444-66666666-77777777-|
E|----------22222222-44444444----------|

E|----------------------------------------------------------------|
B|----------------------------------------------------------------|
G|----------------------------------------------------------------|
D|-66666666-44444444-22222222-44444444-66666666-44444444-22222222-|
A|-66666666-44444444-22222222-44444444-66666666-44444444-22222222-|
E|-44444444-22222222-00000000-22222222-44444444-22222222-00000000-|

End [3:34]
E|--------------------------------------
B|--------------------------------------
G|-44444444-------------------99999999--
D|-44444444-44444444-66666666-99999999--
A|-22222222-44444444-66666666-77777777--
E|----------22222222-44444444-----------

E|-------------------------------------|
B|-------------------------------------|
G|-44444444-------------------99999999-|
D|-44444444-44444444-66666666-99999999-|
A|-22222222-44444444-66666666-77777777-|
E|----------22222222-44444444----------|

E|-------------------------------------------------------------|
B|-------------------------------------------------------------|
G|-------------------------------------------------------------|
D|-66666666-44444444-22222222-44444444-66666666-44444444--2~~--|
A|-66666666-44444444-22222222-44444444-66666666-44444444--2~~--|
E|-44444444-22222222-00000000-22222222-44444444-22222222--0~~--|


******************
eNJOY iT!
If you see any mistakes, 





Comments


Popular Uniklubi tabs & chords
Rakkautta Ja Piikkilankaa Bass Tabs
Huomenna Chords
Olemme Yhtä Chords
Varjoon Juuttunut Chords
Varjot Chords
Kukka Tabs
Rakkaudesta Hulluuteen Tabs
Rakkautta Ja Piikkilankaa Tabs
Aurinkoni Ukulele
Luotisade Ukulele


Song lyrics



↑ Back to top | Tablatures and chords are parodies/interpretations of the original songs. You may use it for private study, scholarship, research or language learning purposes only
© 2014 AZChords.com Contact us | Privacy policy | DMCA | Add/correct tabs | Request tabs | Top 50 tabs