>
 >
Evacuatin Somethin Warm

Evacuatin Somethin Warm Guitar Tabs

Unicorns - Evacuatin Somethin Warm chords, tabs, tablatures, lyrics

Guitar lessons | Add/correct | Request | Top 50 tabs Artists:  A B C D E F G H I J K L M N O P Q R S T U V W X Y Z 0-9

Evacuatin Somethin Warm Guitar Tabs – Unicorns

CD, Sheet music, Poster

Do you like Evacuatin Somethin Warm? Share with your friends now
Tabs

Tuning: Standard
Key: F

INTRO
e|---------------------------------|-----------------1---------------|-------------|
b|-------------------------1---3---|-5---3---5---3---1---1-----------|-------------|
g|---------------------2-----------|-5---5---5---5---2---2---2---2---|-5---5---5---|
d|---------------------3-----------|---------------------------------|-2---2---2---|
a|---------------------------------|---------------------------------|-------------|
e|---------------------------------|---------------------------------|-------------|

--------------------|
--------------------|
5---3---3---5---2---|
2---2---2---2-------|
--------------------|
--------------------|

VERSE 1
   F               Bb                F               Bb
e|---------------------------------|---------------------------------|
b|---------------------------------|---------------------------------|
g|-2-------2-------3-------2---0---|---------2-------3---3---2---0---|
d|-3-----------3---3-------3-------|-3-----------3---3-------3-------|
a|-3-------------------------------|-3-------------------------------|
e|---------------------------------|---------------------------------|

   F               Bb      C         F               Bb
e|---------------------------------|---------------------------------|
b|---------------------------------|---------------------------------|
g|-2-------2-------3-------5-------|-2-------2-------3---3---2---0---|
d|-3-----------3---3-------5-------|-3-----------3---3-------3-------|
a|-3-----------------------7-------|-3-------------------------------|
e|---------------------------------|---------------------------------|

   F               C7                F               C7
e|---------------------------------|---------------------------------|
b|---------------------------------|---------------------------------|
g|-2-------2-------0---------------|-2-------2---------------3p2-----|
d|-3-----------3---2-------2---2---|-3---3-------3---2---2---2---2---|
a|-3---------------3---3---3---3---|-3---------------3---3---3---3---|
e|-1-------------------------------|-1-----------------------0---0---|

F            Bb                          F   Bb
  something warm would be something nice
F                   Bb      C      F      Bb
  to keep me from moaning in the morning
F     C7                   F     C7
  and mourning through the night

F         Bb             F      
take your things from my house
  Bb  C      F
evacuate my life
Bb   C F
it's o-ver
C7      F   C7
rescind

Guitar 1
e|---------------------------------|---------------------------------|
b|---------------------------------|---------------------------------|
g|-2-------2-------2-------2-------|-3-------2-------0---0---3---3---| 2x
d|-----3-------3-------3------3----|-----3---3---3---2---2---5---5---|
a|---------------------------------|---------------------------------|
e|---------------------------------|---------------------------------|

e|---------------------------------|---------------------------------|
b|---------------------------------|---------------------------------|
g|-2---2---2---2p0h2---2p0h2---0---|-3---3---3---3---0---0---3---3---| 2x
d|-3---3---3---3---3---3---3---3---|-0---0---0---0---2---2---5---5---|
a|---------------------------------|-----------------3---3---5---5---|
e|---------------------------------|---------------------------------|

e|---------------------------------|---------------------------------|
b|---------------------------------|---------------------------------|
g|---------------------------------|-3---3---3---3---2---2---0---0---| many x
d|-3---3---3---3---3---3---3---3---|-3---3---3---3---3---3---3---3---|
a|-3---3---3---3---3---3---3---3---|-1---1---1---1---1---1---1---1---|
e|-1---1---1---1---1---1---1---1---|---------------------------------|

Clap your hands...
e|---------------------------------|---------------------------------|
b|---------------------------------|---------------------------------|
g|---------------------------------|---------------------------------| a few x
d|---------------------------------|---------------------------------|
a|-----------------0---3---3---3---|-3---3---3---3---3---3---3---0---|
e|-1---1---1---1-------------------|---------------------------------|

e|---------------------------------|---------------------------------|
b|-1---------------3-------1-------|-----------------3-------5---3---|
g|-2---------------3---------------|-2-------------------------------|
d|-3-------------------------------|-3-------------------------------|
a|---------------------------------|---------------------------------|
e|---------------------------------|---------------------------------|

e|-----------------0---------------|-1---------------0---------------|
b|-1---------------1---------------|-1---------------1---------------|
g|-2---------------3---------------|-2---------------3---------------|
d|-3---------------2---------------|-3---------------2---------------|
a|-----------------3---------------|-----------------3---------------|
e|---------------------------------|---------------------------------|


PLAY VERSE

Fill:
e|-1-----------8---6---5---3---1---|---------------------------------|
b|---------------------------------|-1-------------------------------|
g|---------------------------------|---------------------------------|
d|---------------------------------|---------------------------------|
a|---------------------------------|---------------------------------|
e|---------------------------------|---------------------------------|

OUTRO
e|---------------------------------|---------------------------------|
b|-1---------------3-------1-------|-----------------3-------5-------|
g|-2---------------3-------2---0---|-2---------------3-------0-------|
d|-3-----------------------3-------|-3-------------------------------|
a|---------------------------------|---------------------------------|
e|---------------------------------|---------------------------------|

e|-1---------------0---------------|---------------------------------|
b|-1---------------1---------------|---------------------------------|
g|-2---------------3---------------|---------------------------------|
d|-3------3--------2-------2-------|-3-------------------------------|
a|-----------------3---------------|---------------------------------|
e|---------------------------------|---------------------------------|

A lot of this song is kinda improv type stuff, but hopefully this is enough to 
give you a feel of the song.





Comments


Popular Unicorns tabs & chords
Tuff Ghost Bass Tabs
Les Os 1 Chords
Peach Moon Chords
I Was Born (A Unicorn) 2 Tabs
I Was Born A Unicorn 4 Tabs
Innoculate The Innocuous Tabs
Sea Ghost Tabs
Emasculate The Masculine Ukulele
Jellybones Ukulele
Tuff Ghost Ukulele


Song lyrics



↑ Back to top | Tablatures and chords are parodies/interpretations of the original songs. You may use it for private study, scholarship, research or language learning purposes only
© 2014 AZChords.com Contact us | Privacy policy | DMCA | Add/correct tabs | Request tabs | Top 50 tabs