» » »

Unhindered, Farewell Lullaby Tabs (ver.1)

Artists:  A B C D E F G H I J K L M N O P Q R S T U V W X Y Z # 

Farewell Lullaby Tabs (ver.1)

Unhindered Tabs
Rating:
5/5 (2 votes)
Farewell Lullaby lessons Tabs too difficult? Try these video lessons and learn fast
                I have taken a few hours to finish this, real tired now!
Hope you enjoy it :D ha-ha
God bless you!

VERSE 1 & CHORUS

|-0-------0-------0-------0-------|
|---3-2-2---3-2-2---3-2-2---3-2-2-|
|-2-2-2-2-2-2-2-2-2-2-2-2-2-2-2-2-|
|----------------0-0-0-0----------|
|--------0-0-0-0---------0-0-0-0--|
|2-2-2-2--------------------------| (Repeatx5)

|--------------------------0-00----------------------0---5-------|
|33-3--3-33-3--3---2--2----------33-3--3-33-3--3---------6-------|
|22-2----22-2-----2--2--2--4-42--22-2---222-2-2-2-212-212--------|
|--------00-0----------------------------00-0----2---------------|
|22-2---------------------2----0-22-2----------------------------|
|----------------2--2--2-4--4---2--------------------------------|

|-0-------0-------0-------------------0-0--0--0--------0---0-----|
|---3-2-2---3-2-2---3-2-2----------2-------3-------3---2---------|
|-2-2-2-2-2-2-2-2-2-2-2-2-12-12---2---4-2-2--2-2---2--2---2------|
|0-0-0-0---------0-0-0-0-2--2--2---------0--0---2-0------0--0P2--|
|--------0-0-0-0----------------2------0---------2--24--4--------|
|--------------------------------2--24---------------------------|


VERSE 2 & CHORUS

|-0-------0-------0-------0-------|
|---3-2-2---3-2-2---3-2-2---3-2-2-|
|-2-2-2-2-2-2-2-2-2-2-2-2-2-2-2-2-|
|----------------0-0-0-0----------|
|--------0-0-0-0---------0-0-0-0--|
|2-2-2-2--------------------------|  (Repeatx5)


|----------------------------------------------------0---0--------|
|33-3--3-33-3--3---2--2----------33-3--3-33-3--3------------------|
|22-2--2222-2-2-2-2---2----4-42-222-2--2222-2-2-2-212-2121--------|
|--------00-0----------------------------00-0----2----------------|
|22-2---------------------2----0-22-2-----------------------------|
|----------------2--22-224--4-------------------------------------|


|-0-------0-------0----------0--0------0-0--0-00--------0---0-----|
|---3-2-2---3-2-2---3-2-2-----------2-------3--3----3---2---------|
|-2-2-2-2-2-2-2-2-2-2-2-2-121-21---2---4-2-2--2--2--2--2---2------|
|0-0-0-0---------0-0-0-0-2-------2--------0--0--0--0------0--0P2--|
|--------0-0-0-0------------------------0---------2--24--4--------|
|---------------------------------2--24----------2----------------|


Ending

|-0-------0-------0-------0-------0-------0-------0--------------|
|---3-2-2---3-2-2---3-2-2---3-2-2---3-2-2---3-2-2---3-2-2--------|
|-2-2-2-2-2-2-2-2-2-2-2-2-2-2-2-2-2-2-2-2-2-2-2-2-2-2-2-2--------|
|----------------0-0-0-0-------------------------0-0-0-0---------|
|--------0-0-0-0---------0-0-0-0---------0-0-0-0---------0-------|
|2-2-2-2-------------------------2-2-2-2-------------------------|



Here is the lyrics! :P
You can go to iTunes to download the ring tones!

FAREWELL LULLABY

VERSE 1
I find myself worried that they might see
This childish love burning to be released
Insecurities, lies had taken hold of me
And calloused my heart, oh, Lord
All these thoughts from shame
Of what would people say if they saw me now

CHORUS
This is my final goodbye
To halfhearted dances
My final goodbye
To love that's whispered in fear
My final goodbye
To all Your expectations
Join me in this farewell lullaby
My final goodbye

VERSE 2
My sin laid bare, naked for all to see
My heart unbound, knowing I'm finally free
Of what they'll say or do
When they see this foolish heart for You
No shame, I'm not afraid not anymore
No more pride or fear
No apprehensive love found here
I'm saying my vows
            

comments powered by Disqus
↑ Back to top | Unhindered Tabs for Farewell Lullaby. Lyrics for acoustic guitar and electric guitar. Tablatures and chords are parodies/interpretations of the original songs. You may use it for private study, scholarship, research or language learning purposes only