>
 >
Vollmond

Vollmond Guitar Tabs

Unheilig - Vollmond chords, tabs, tablatures, lyrics

Guitar lessons | Add/correct | Request | Top 50 tabs Artists:  A B C D E F G H I J K L M N O P Q R S T U V W X Y Z 0-9

Vollmond Guitar Tabs – Unheilig

CD, Sheet music, Poster

Do you like Vollmond? Share with your friends now
Tabs
Tempo = 69
Overdriven

Legend
L - tied note
x - dead note
h - hammer on/pull off
b - bend
s - slide
~ - vibrato
g - ghost note
> - accentuated note
t - trill
M - palm mute
. - staccato
P - popping (bass)
S - slapping (bass)
+ - tapping
W - wide vibrato
< - fade in
w - whammy bar
= - tremolo picking
v - brush up
^ - brush down
V - pick stroke up
n - pick stroke down


E |----|----|----|----|----||
B |----|----|----|----|----||
G |----|----|----|----|----||
D |----|----|----|----|----||
A |----|----|----|----|----||
E |----|----|----|----|----||


---------------------------------------------------|
---------------------------------------------------|
o5--------7--------5--------7--------8--7----------|
o5--------7--------5--------5--------8--7----------|
-3--0M-0M-5--0M-0M-3--0M-0M-5--0M-0M-6--5--0M-0M---|
---------------------------------------------------|


---------------------------------------------------|||---|
---------------------------------------------------|||---|
--5--------7--------5-----------------5-----------o|||o--|
--5--------7--------5--------7--------5-----------o|||o--|
--3--0M-0M-5--0M-0M-3--0M-0M-7--5M-3M-3--5M--------|||---|
-----------------------------5--------------3M-5M--|||---|


---------------------------------------------------||
---------------------------------------------------||
--5--------7--------5-----------------5-----------o||
--5--------7--------5--------7--------5-----------o||
--3--0M-0M-5--0M-0M-3--0M-0M-7--5M-3M-3--5M--------||
-----------------------------5--------------3M-5M--||


----------------------------------------------------|
----------------------------------------------------|
--------------------------------------------2--2----|
--------------------------------------------2--2----|
--------------------------------------------0--0----|
--1M-1M----1M-1M----1M-1M----1M-1M----1M-1M---------|


----------------------------------------------------|
----------------------------------------------------|
--------------------------------------------4--4----|
--------------------------------------------4--4----|
--------------------------------------------2--2----|
--3M-3M----3M-3M----3M-3M----3M-3M----3M-3M---------|


----------------------------------------------------|
----------------------------------------------------|
--------------------------------------------3--3----|
--------------------------------------------3--3----|
--------------------------------------------1--1----|
--5M-5M----5M-5M----5M-5M----5M-5M----5M-5M---------|


----------------------------------------------------||
----------------------------------------------------||
----------------------------------------------------||
----------------------------------------------------||
----------------------------------------------------||
--0M-0M---------------------------------------------||


---------------------------------------------------|
---------------------------------------------------|
o5--------7--------5--------7--------8--7----------|
o5--------7--------5--------7--------8--7----------|
-3--0M-0M-5--0M-0M-3--0M-0M-5--0M-0M-6--5--0M-0M---|
---------------------------------------------------|


---------------------------------------------------||
---------------------------------------------------||
--5--------7--------5-----------------5-----------o||
--5--------7--------5--------7--------5-----------o||
--3--0M-0M-5--0M-0M-3--0M-0M-7--5M-3M-3--5M--------||
-----------------------------5--------------3M-5M--||


----------------------------------------------------|
----------------------------------------------------|
--2--2--2-----2--2-----2--2-----3-----2--------2----|
--2--2--2-----2--2-----2--2-----3-----2--------2----|
--0--0--0-----0--0-----0--0-----1-----0--------0----|
----------------------------------------------------|


----------------------------------------------------|
----------------------------------------------------|
--5--------7--------5--------7--------8--7----------|
--5--------7--------5--------7--------8--5----------|
--3--0M-0M-5--0M-0M-3--0M-0M-5--0M-0M-6--5--0M-0M---|
----------------------------------------------------|


----------------------------------------------------|
----------------------------------------------------|
--2--2--2-----2--2-----2--2-----3-----2--------2----|
--2--2--2-----2--2-----2--2-----3-----2--------2----|
--0--0--0-----0--0-----0--0-----1-----0--------0----|
----------------------------------------------------|


----------------------------------------------------|
----------------------------------------------------|
--5--------7--------5--------7--------8--7----------|
--5--------7--------5--------7--------8--5----------|
--3--0M-0M-5--0M-0M-3--0M-0M-5--0M-0M-6--5--0M-0M---|
----------------------------------------------------|


----------------------------------------------------|
----------------------------------------------------|
--2--2--2-----2--2-----2--5-----3-----2-----3--2----|
--2--2--2-----2--2-----2--5-----3-----2-----3--2----|
--0--0--0-----0--0-----0--3-----1-----0-----1--0----|
----------------------------------------------------|


----------------------------------------------------|
----------------------------------------------------|
--------------------------------------------2--2----|
--------------------------------------------2--2----|
--------------------------------------------0--0----|
--1M-1M----1M-1M----1M-1M----1M-1M----1M-1M---------|


----------------------------------------------------|
----------------------------------------------------|
--------------------------------------------4--4----|
--------------------------------------------4--4----|
--------------------------------------------2--2----|
--3M-3M----3M-3M----3M-3M----3M-3M----3M-3M---------|


----------------------------------------------------|
----------------------------------------------------|
--------------------------------------------3--3----|
--------------------------------------------3--3----|
--------------------------------------------1--1----|
--5M-5M----5M-5M----5M-5M----5M-5M----5M-5M---------|


----------------------------------------------------||
----------------------------------------------------||
----------------------------------------------------||
----------------------------------------------------||
----------------------------------------------------||
--0M-0M---------------------------------------------||


---------------------------------------------------|
---------------------------------------------------|
o5--------7--------5--------7--------8--7----------|
o5--------7--------5--------7--------8--7----------|
-3--0M-0M-5--0M-0M-3--0M-0M-5--0M-0M-6--5--0M-0M---|
---------------------------------------------------|


---------------------------------------------------||
---------------------------------------------------||
--5--------7--------5-----------------5-----------o||
--5--------7--------5--------7--------5-----------o||
--3--0M-0M-5--0M-0M-3--0M-0M-7--5M-3M-3--5M--------||
-----------------------------5--------------3M-5M--||


----------------------------------------------------|----|----|----|----|----|
----------------------------------------------------|----|----|----|----|----|
--2--2--2-----2--2-----2--2-----3-----2--------2----|----|----|----|----|----|
--2--2--2-----2--2-----2--2-----3-----2--------2----|----|----|----|----|----|
--0--0--0-----0--0-----0--0-----1-----0--------0----|----|----|----|----|----|
----------------------------------------------------|----|----|----|----|----|


----|----|----||---------------------------------------------------|
----|----|----||---------------------------------------------------|
----|----|----||o2--2--2-----2--2-----2--2--------3--3--2----------|
----|----|----||o2--2--2-----2--2-----2--2--------3--3--2----------|
----|----|----||-0--0--0-----0--0-----0--0--------1--1--0----------|
----|----|----||---------------------------------------------------|


---------------------------------------------------||----|----|----|----|----|
---------------------------------------------------||----|----|----|----|----|
--2--2--2-----2--2-----2--5--------5--3--2--------o||----|----|----|----|----|
--2--2--2-----2--2-----2--5--------5--3--2--------o||----|----|----|----|----|
--0--0--0-----0--0-----0--3--------3--1--0---------||----|----|----|----|----|
---------------------------------------------------||----|----|----|----|----|


----|----|----------------------------------------------------||
----|----|----------------------------------------------------||
----|----|----------------------------------------------------||
----|----|----------------------------------------------------||
----|----|--------------------------3--2--2-----5--3----------||
----|----|-----------------------------0--0--3--------3--5----||


---------------------------------------------------|
---------------------------------------------------|
o5--------7--------5--------7--------8--7----------|
o5--------7--------5--------7--------8--7----------|
-3--0M-0M-5--0M-0M-3--0M-0M-5--0M-0M-6--5--0M-0M---|
---------------------------------------------------|


---------------------------------------------------||
---------------------------------------------------||
--5--------7--------5-----------------5-----------o||
--5--------7--------5--------7--------5-----------o||
--3--0M-0M-5--0M-0M-3--0M-0M-7--5M-3M-3--5M--------||
-----------------------------5--------------3M-5M--||


----------------------------------------------------|----|----|----|----|----|
----------------------------------------------------|----|----|----|----|----|
--2--2--2-----2--2-----2--2-----3-----2--------2----|----|----|----|----|----|
--2--2--2-----2--2-----2--2-----3-----2--------2----|----|----|----|----|----|
--0--0--0-----0--0-----0--0-----1-----0--------0----|----|----|----|----|----|
----------------------------------------------------|----|----|----|----|----|


----|----|----|----|----|----|----|----|----|----|----|----|----|----|----|----|
----|----|----|----|----|----|----|----|----|----|----|----|----|----|----|----|
----|----|----|----|----|----|----|----|----|----|----|----|----|----|----|----|
----|----|----|----|----|----|----|----|----|----|----|----|----|----|----|----|
----|----|----|----|----|----|----|----|----|----|----|----|----|----|----|----|
----|----|----|----|----|----|----|----|----|----|----|----|----|----|----|----|


----|----|----|----|----|----|----|----|----|----|----|----|----|----||
----|----|----|----|----|----|----|----|----|----|----|----|----|----||
----|----|----|----|----|----|----|----|----|----|----|----|----|----||
----|----|----|----|----|----|----|----|----|----|----|----|----|----||
----|----|----|----|----|----|----|----|----|----|----|----|----|----||
----|----|----|----|----|----|----|----|----|----|----|----|----|----||





Comments


Popular Unheilig tabs & chords
Geboren Um Zu Leben 2 Chords
Geboren Um Zu Leben 3 Chords
Mein Stern Chords
So Wie Du Warst Chords
Unter Deiner Flagge Chords
Winter Chords
Geboren Um Zu Leben Intro Tabs
An Deiner Seite Ukulele
Astronaut Ukulele
Unter Deiner Flagge Ukulele


Song lyrics



↑ Back to top | Tablatures and chords are parodies/interpretations of the original songs. You may use it for private study, scholarship, research or language learning purposes only
© 2014 AZChords.com Contact us | Privacy policy | DMCA | Add/correct tabs | Request tabs | Top 50 tabs