» » »

Ungu, Tercipta Untukku Tabs (ver.3)

Artists:  A B C D E F G H I J K L M N O P Q R S T U V W X Y Z # 

Tercipta Untukku Tabs (ver.3)

Ungu Tabs
 Rating:
4/5 (4 votes)
Tercipta Untukku lessons Tabs too difficult? Try these video lessons and learn fast
1
                Tuning: Standard (E,A,D,G,B,E)

++++++++++++++++++++++++++

This solo is easy to play by ear .. So have fun you guys .. Rate this


 Guitar 1:
e|------------4-5-7-8--8~---/12--------12-12/14-14/16---------------|
B|----------5-------------------13-13-----------------12~-----------|
G|------4-5-----------------------------------------------13h14-13--|
D|--6-7-------------------------------------------------------------|
A|------------------------------------------------------------------|
E|------------------------------------------------------------------|

e|------------4-5-7-8--8~---/12--------12-12--11h12-11--------------|
B|----------5-------------------13-13-----------------/12-12-(12)~--|
G|------4-5---------------------------------------------------------|
D|--6-7-------------------------------------------------------------|
A|------------------------------------------------------------------|
E|------------------------------------------------------------------|

e|--14-12-11--------------|
B|-----------14-12--------|
G|-----------------14-13--| 
D|------------------------|
A|------------------------|
E|------------------------|

++++++++++++++++++++++++++

() = Bring note to normal
h  = Hammer on
p  = Pull of
~  = Vibrato
/  = Slide down
\  = Slide up

++++++++++++++++++++++++++
            
Submit corrections

comments powered by Disqus
↑ Back to top | Ungu Tabs for Tercipta Untukku. Lyrics for acoustic guitar and electric guitar. 1 Tablatures and chords are parodies/interpretations of the original songs. You may use it for private study, scholarship, research or language learning purposes only